  0
SECTION
  2
HEADER
  9
$ACADVER
  1
AC1027
  9
$ACADMAINTVER
 70
    55
  9
$DWGCODEPAGE
  3
ANSI_1252
  9
$LASTSAVEDBY
  1
Tomas
  9
$REQUIREDVERSIONS
160
                 0
  9
$INSBASE
 10
0.0
 20
0.0
 30
0.0
  9
$EXTMIN
 10
-36.96694987444645
 20
-0.0000000000001597
 30
0.0
  9
$EXTMAX
 10
7.281250285892652
 20
27.41018188087034
 30
0.0
  9
$LIMMIN
 10
0.0
 20
0.0
  9
$LIMMAX
 10
12.0
 20
9.0
  9
$ORTHOMODE
 70
     0
  9
$REGENMODE
 70
     1
  9
$FILLMODE
 70
     1
  9
$QTEXTMODE
 70
     0
  9
$MIRRTEXT
 70
     0
  9
$LTSCALE
 40
1.0
  9
$ATTMODE
 70
     1
  9
$TEXTSIZE
 40
0.2
  9
$TRACEWID
 40
0.05
  9
$TEXTSTYLE
  7
Standard
  9
$CLAYER
  8
5900A.05GT
  9
$CELTYPE
  6
ByLayer
  9
$CECOLOR
 62
   256
  9
$CELTSCALE
 40
1.0
  9
$DISPSILH
 70
     0
  9
$DIMSCALE
 40
1.0
  9
$DIMASZ
 40
0.18
  9
$DIMEXO
 40
0.0625
  9
$DIMDLI
 40
0.38
  9
$DIMRND
 40
0.0
  9
$DIMDLE
 40
0.0
  9
$DIMEXE
 40
0.18
  9
$DIMTP
 40
0.0
  9
$DIMTM
 40
0.0
  9
$DIMTXT
 40
0.18
  9
$DIMCEN
 40
0.09
  9
$DIMTSZ
 40
0.0
  9
$DIMTOL
 70
     0
  9
$DIMLIM
 70
     0
  9
$DIMTIH
 70
     1
  9
$DIMTOH
 70
     1
  9
$DIMSE1
 70
     0
  9
$DIMSE2
 70
     0
  9
$DIMTAD
 70
     0
  9
$DIMZIN
 70
     0
  9
$DIMBLK
  1

  9
$DIMASO
 70
     1
  9
$DIMSHO
 70
     1
  9
$DIMPOST
  1

  9
$DIMAPOST
  1

  9
$DIMALT
 70
     0
  9
$DIMALTD
 70
     2
  9
$DIMALTF
 40
25.4
  9
$DIMLFAC
 40
1.0
  9
$DIMTOFL
 70
     0
  9
$DIMTVP
 40
0.0
  9
$DIMTIX
 70
     0
  9
$DIMSOXD
 70
     0
  9
$DIMSAH
 70
     0
  9
$DIMBLK1
  1

  9
$DIMBLK2
  1

  9
$DIMSTYLE
  2
Standard
  9
$DIMCLRD
 70
     0
  9
$DIMCLRE
 70
     0
  9
$DIMCLRT
 70
     0
  9
$DIMTFAC
 40
1.0
  9
$DIMGAP
 40
0.09
  9
$DIMJUST
 70
     0
  9
$DIMSD1
 70
     0
  9
$DIMSD2
 70
     0
  9
$DIMTOLJ
 70
     1
  9
$DIMTZIN
 70
     0
  9
$DIMALTZ
 70
     0
  9
$DIMALTTZ
 70
     0
  9
$DIMUPT
 70
     0
  9
$DIMDEC
 70
     4
  9
$DIMTDEC
 70
     4
  9
$DIMALTU
 70
     4
  9
$DIMALTTD
 70
     2
  9
$DIMTXSTY
  7
Standard
  9
$DIMAUNIT
 70
     0
  9
$DIMADEC
 70
     0
  9
$DIMALTRND
 40
0.0
  9
$DIMAZIN
 70
     0
  9
$DIMDSEP
 70
    46
  9
$DIMATFIT
 70
     3
  9
$DIMFRAC
 70
     0
  9
$DIMLDRBLK
  1

  9
$DIMLUNIT
 70
     4
  9
$DIMLWD
 70
    -2
  9
$DIMLWE
 70
    -2
  9
$DIMTMOVE
 70
     0
  9
$DIMFXL
 40
1.0
  9
$DIMFXLON
 70
     0
  9
$DIMJOGANG
 40
0.7853981633974483
  9
$DIMTFILL
 70
     0
  9
$DIMTFILLCLR
 70
     0
  9
$DIMARCSYM
 70
     0
  9
$DIMLTYPE
  6

  9
$DIMLTEX1
  6

  9
$DIMLTEX2
  6

  9
$DIMTXTDIRECTION
 70
     0
  9
$LUNITS
 70
     4
  9
$LUPREC
 70
     4
  9
$SKETCHINC
 40
0.1
  9
$FILLETRAD
 40
0.0
  9
$AUNITS
 70
     0
  9
$AUPREC
 70
     0
  9
$MENU
  1
.
  9
$ELEVATION
 40
0.0
  9
$PELEVATION
 40
0.0
  9
$THICKNESS
 40
0.0
  9
$LIMCHECK
 70
     0
  9
$CHAMFERA
 40
0.0
  9
$CHAMFERB
 40
0.0
  9
$CHAMFERC
 40
0.0
  9
$CHAMFERD
 40
0.0
  9
$SKPOLY
 70
     0
  9
$TDCREATE
 40
2458099.679106979
  9
$TDUCREATE
 40
2458099.887440313
  9
$TDUPDATE
 40
2458099.698989433
  9
$TDUUPDATE
 40
2458099.907322766
  9
$TDINDWG
 40
0.0138128472
  9
$TDUSRTIMER
 40
0.0138128472
  9
$USRTIMER
 70
     1
  9
$ANGBASE
 50
0.0
  9
$ANGDIR
 70
     0
  9
$PDMODE
 70
     0
  9
$PDSIZE
 40
0.0
  9
$PLINEWID
 40
0.0
  9
$SPLFRAME
 70
     0
  9
$SPLINETYPE
 70
     6
  9
$SPLINESEGS
 70
     8
  9
$HANDSEED
  5
3EB
  9
$SURFTAB1
 70
     6
  9
$SURFTAB2
 70
     6
  9
$SURFTYPE
 70
     6
  9
$SURFU
 70
     6
  9
$SURFV
 70
     6
  9
$UCSBASE
  2

  9
$UCSNAME
  2

  9
$UCSORG
 10
0.0
 20
0.0
 30
0.0
  9
$UCSXDIR
 10
1.0
 20
0.0
 30
0.0
  9
$UCSYDIR
 10
0.0
 20
1.0
 30
0.0
  9
$UCSORTHOREF
  2

  9
$UCSORTHOVIEW
 70
     0
  9
$UCSORGTOP
 10
0.0
 20
0.0
 30
0.0
  9
$UCSORGBOTTOM
 10
0.0
 20
0.0
 30
0.0
  9
$UCSORGLEFT
 10
0.0
 20
0.0
 30
0.0
  9
$UCSORGRIGHT
 10
0.0
 20
0.0
 30
0.0
  9
$UCSORGFRONT
 10
0.0
 20
0.0
 30
0.0
  9
$UCSORGBACK
 10
0.0
 20
0.0
 30
0.0
  9
$PUCSBASE
  2

  9
$PUCSNAME
  2

  9
$PUCSORG
 10
0.0
 20
0.0
 30
0.0
  9
$PUCSXDIR
 10
1.0
 20
0.0
 30
0.0
  9
$PUCSYDIR
 10
0.0
 20
1.0
 30
0.0
  9
$PUCSORTHOREF
  2

  9
$PUCSORTHOVIEW
 70
     0
  9
$PUCSORGTOP
 10
0.0
 20
0.0
 30
0.0
  9
$PUCSORGBOTTOM
 10
0.0
 20
0.0
 30
0.0
  9
$PUCSORGLEFT
 10
0.0
 20
0.0
 30
0.0
  9
$PUCSORGRIGHT
 10
0.0
 20
0.0
 30
0.0
  9
$PUCSORGFRONT
 10
0.0
 20
0.0
 30
0.0
  9
$PUCSORGBACK
 10
0.0
 20
0.0
 30
0.0
  9
$USERI1
 70
     0
  9
$USERI2
 70
     0
  9
$USERI3
 70
     0
  9
$USERI4
 70
     0
  9
$USERI5
 70
     0
  9
$USERR1
 40
0.0
  9
$USERR2
 40
0.0
  9
$USERR3
 40
0.0
  9
$USERR4
 40
0.0
  9
$USERR5
 40
0.0
  9
$WORLDVIEW
 70
     1
  9
$SHADEDGE
 70
     3
  9
$SHADEDIF
 70
    70
  9
$TILEMODE
 70
     1
  9
$MAXACTVP
 70
    64
  9
$PINSBASE
 10
0.0
 20
0.0
 30
0.0
  9
$PLIMCHECK
 70
     0
  9
$PEXTMIN
 10
1.000000000000000E+20
 20
1.000000000000000E+20
 30
1.000000000000000E+20
  9
$PEXTMAX
 10
-1.000000000000000E+20
 20
-1.000000000000000E+20
 30
-1.000000000000000E+20
  9
$PLIMMIN
 10
0.0
 20
0.0
  9
$PLIMMAX
 10
12.0
 20
9.0
  9
$UNITMODE
 70
     0
  9
$VISRETAIN
 70
     1
  9
$PLINEGEN
 70
     0
  9
$PSLTSCALE
 70
     1
  9
$TREEDEPTH
 70
  3020
  9
$CMLSTYLE
  2
Standard
  9
$CMLJUST
 70
     0
  9
$CMLSCALE
 40
1.0
  9
$PROXYGRAPHICS
 70
     1
  9
$MEASUREMENT
 70
     0
  9
$CELWEIGHT
370
    -1
  9
$ENDCAPS
280
     0
  9
$JOINSTYLE
280
     0
  9
$LWDISPLAY
290
     0
  9
$INSUNITS
 70
     1
  9
$HYPERLINKBASE
  1

  9
$STYLESHEET
  1

  9
$XEDIT
290
     1
  9
$CEPSNTYPE
380
     0
  9
$PSTYLEMODE
290
     1
  9
$FINGERPRINTGUID
  2
{EC625ABB-5FBA-4BB5-B000-D99E3C2027ED}
  9
$VERSIONGUID
  2
{53763268-DFF8-49D9-B847-C91D874233C0}
  9
$EXTNAMES
290
     1
  9
$PSVPSCALE
 40
0.0
  9
$OLESTARTUP
290
     0
  9
$SORTENTS
280
   127
  9
$INDEXCTL
280
     0
  9
$HIDETEXT
280
     1
  9
$XCLIPFRAME
280
     2
  9
$HALOGAP
280
     0
  9
$OBSCOLOR
 70
   257
  9
$OBSLTYPE
280
     0
  9
$INTERSECTIONDISPLAY
280
     0
  9
$INTERSECTIONCOLOR
 70
   257
  9
$DIMASSOC
280
     2
  9
$PROJECTNAME
  1

  9
$CAMERADISPLAY
290
     0
  9
$LENSLENGTH
 40
50.0
  9
$CAMERAHEIGHT
 40
0.0
  9
$STEPSPERSEC
 40
2.0
  9
$STEPSIZE
 40
6.0
  9
$3DDWFPREC
 40
2.0
  9
$PSOLWIDTH
 40
0.25
  9
$PSOLHEIGHT
 40
4.0
  9
$LOFTANG1
 40
1.570796326794896
  9
$LOFTANG2
 40
1.570796326794896
  9
$LOFTMAG1
 40
0.0
  9
$LOFTMAG2
 40
0.0
  9
$LOFTPARAM
 70
     7
  9
$LOFTNORMALS
280
     1
  9
$LATITUDE
 40
0.0
  9
$LONGITUDE
 40
0.0
  9
$NORTHDIRECTION
 40
0.0
  9
$TIMEZONE
 70
     0
  9
$LIGHTGLYPHDISPLAY
280
     1
  9
$TILEMODELIGHTSYNCH
280
     1
  9
$CMATERIAL
347
11
  9
$SOLIDHIST
280
     0
  9
$SHOWHIST
280
     1
  9
$DWFFRAME
280
     2
  9
$DGNFRAME
280
     0
  9
$REALWORLDSCALE
290
     1
  9
$INTERFERECOLOR
 62
     1
  9
$INTERFEREOBJVS
345
33
  9
$INTERFEREVPVS
346
30
  9
$CSHADOW
280
     0
  9
$SHADOWPLANELOCATION
 40
0.0
  0
ENDSEC
  0
SECTION
  2
CLASSES
  0
CLASS
  1
ACDBDICTIONARYWDFLT
  2
AcDbDictionaryWithDefault
  3
ObjectDBX Classes
 90
        0
 91
        1
280
     0
281
     0
  0
CLASS
  1
MATERIAL
  2
AcDbMaterial
  3
ObjectDBX Classes
 90
     1153
 91
        3
280
     0
281
     0
  0
CLASS
  1
VISUALSTYLE
  2
AcDbVisualStyle
  3
ObjectDBX Classes
 90
     4095
 91
       24
280
     0
281
     0
  0
CLASS
  1
SCALE
  2
AcDbScale
  3
ObjectDBX Classes
 90
     1153
 91
       17
280
     0
281
     0
  0
CLASS
  1
TABLESTYLE
  2
AcDbTableStyle
  3
ObjectDBX Classes
 90
     4095
 91
        1
280
     0
281
     0
  0
CLASS
  1
MLEADERSTYLE
  2
AcDbMLeaderStyle
  3
ACDB_MLEADERSTYLE_CLASS
 90
     4095
 91
        1
280
     0
281
     0
  0
CLASS
  1
ACDBSECTIONVIEWSTYLE
  2
AcDbSectionViewStyle
  3
ObjectDBX Classes
 90
     1025
 91
        1
280
     0
281
     0
  0
CLASS
  1
ACDBDETAILVIEWSTYLE
  2
AcDbDetailViewStyle
  3
ObjectDBX Classes
 90
     1025
 91
        1
280
     0
281
     0
  0
CLASS
  1
RASTERVARIABLES
  2
AcDbRasterVariables
  3
ISM
 90
        0
 91
        1
280
     0
281
     0
  0
CLASS
  1
DICTIONARYVAR
  2
AcDbDictionaryVar
  3
ObjectDBX Classes
 90
        0
 91
        5
280
     0
281
     0
  0
CLASS
  1
SORTENTSTABLE
  2
AcDbSortentsTable
  3
ObjectDBX Classes
 90
        0
 91
        1
280
     0
281
     0
  0
CLASS
  1
SOLID_BACKGROUND
  2
AcDbSolidBackground
  3
SCENEOE
 90
     4095
 91
        0
280
     0
281
     0
  0
CLASS
  1
NPOCOLLECTION
  2
AcDbImpNonPersistentObjectsCollection
  3
ObjectDBX Classes
 90
     1153
 91
        0
280
     0
281
     0
  0
CLASS
  1
CELLSTYLEMAP
  2
AcDbCellStyleMap
  3
ObjectDBX Classes
 90
     1152
 91
        1
280
     0
281
     0
  0
ENDSEC
  0
SECTION
  2
TABLES
  0
TABLE
  2
VPORT
  5
8
330
0
100
AcDbSymbolTable
 70
     1
  0
VPORT
  5
57
330
8
100
AcDbSymbolTableRecord
100
AcDbViewportTableRecord
  2
*Active
 70
     0
 10
0.0
 20
0.0
 11
1.0
 21
1.0
 12
0.0000000000000071
 22
3.799283246835415
 13
0.0
 23
0.0
 14
1.0
 24
1.0
 15
0.0
 25
0.0
 16
-0.0000000000000355
 26
0.0
 36
159.2358201178732
 17
-14.84284979427689
 27
13.70509094043509
 37
0.0
 40
52.05823834643167
 41
2.329683698296836
 42
50.0
 43
0.0
 44
0.0
 50
0.0
 51
0.0
 71
     0
 72
  1000
 73
     1
 74
     1
 75
     0
 76
     0
 77
     0
 78
     0
281
     0
 65
     1
110
0.0
120
0.0
130
0.0
111
1.0
121
0.0
131
0.0
112
0.0
122
1.0
132
0.0
 79
     0
146
0.0
348
2F
 60
     3
 61
     5
292
     1
282
     1
141
0.0
142
0.0
 63
   250
421
  3355443
1001
ACAD_NAV_VCDISPLAY
1070
     3
  0
ENDTAB
  0
TABLE
  2
LTYPE
  5
5
330
0
100
AcDbSymbolTable
 70
     1
  0
LTYPE
  5
5B
330
5
100
AcDbSymbolTableRecord
100
AcDbLinetypeTableRecord
  2
ByBlock
 70
     0
  3

 72
    65
 73
     0
 40
0.0
  0
LTYPE
  5
5C
330
5
100
AcDbSymbolTableRecord
100
AcDbLinetypeTableRecord
  2
ByLayer
 70
     0
  3

 72
    65
 73
     0
 40
0.0
  0
LTYPE
  5
5D
330
5
100
AcDbSymbolTableRecord
100
AcDbLinetypeTableRecord
  2
Continuous
 70
     0
  3
Solid line
 72
    65
 73
     0
 40
0.0
  0
ENDTAB
  0
TABLE
  2
LAYER
  5
2
102
{ACAD_XDICTIONARY
360
357
102
}
330
0
100
AcDbSymbolTable
 70
     2
  0
LAYER
  5
54
330
2
100
AcDbSymbolTableRecord
100
AcDbLayerTableRecord
  2
0
 70
     0
 62
     7
  6
Continuous
370
    -3
390
F
347
21
348
0
  0
LAYER
  5
280
330
2
100
AcDbSymbolTableRecord
100
AcDbLayerTableRecord
  2
5900A.05GT
 70
     0
 62
     7
  6
Continuous
370
    -3
390
F
347
21
348
0
1001
AcAecLayerStandard
1000

1000

1001
AcCmTransparency
1071
        0
  0
ENDTAB
  0
TABLE
  2
STYLE
  5
3
330
0
100
AcDbSymbolTable
 70
     1
  0
STYLE
  5
55
330
3
100
AcDbSymbolTableRecord
100
AcDbTextStyleTableRecord
  2
Standard
 70
     0
 40
0.0
 41
1.0
 50
0.0
 71
     0
 42
0.2
  3
txt
  4

  0
ENDTAB
  0
TABLE
  2
VIEW
  5
6
330
0
100
AcDbSymbolTable
 70
     0
  0
ENDTAB
  0
TABLE
  2
UCS
  5
7
330
0
100
AcDbSymbolTable
 70
     0
  0
ENDTAB
  0
TABLE
  2
APPID
  5
9
330
0
100
AcDbSymbolTable
 70
     6
  0
APPID
  5
56
330
9
100
AcDbSymbolTableRecord
100
AcDbRegAppTableRecord
  2
ACAD
 70
     0
  0
APPID
  5
5E
330
9
100
AcDbSymbolTableRecord
100
AcDbRegAppTableRecord
  2
AcadAnnotative
 70
     0
  0
APPID
  5
78
330
9
100
AcDbSymbolTableRecord
100
AcDbRegAppTableRecord
  2
REVIT
 70
     0
  0
APPID
  5
C1
330
9
100
AcDbSymbolTableRecord
100
AcDbRegAppTableRecord
  2
ACAD_NAV_VCDISPLAY
 70
     0
  0
APPID
  5
281
330
9
100
AcDbSymbolTableRecord
100
AcDbRegAppTableRecord
  2
AcAecLayerStandard
 70
     0
  0
APPID
  5
282
330
9
100
AcDbSymbolTableRecord
100
AcDbRegAppTableRecord
  2
AcCmTransparency
 70
     0
  0
ENDTAB
  0
TABLE
  2
DIMSTYLE
  5
A
330
0
100
AcDbSymbolTable
 70
     1
100
AcDbDimStyleTable
 71
     0
  0
DIMSTYLE
105
58
330
A
100
AcDbSymbolTableRecord
100
AcDbDimStyleTableRecord
  2
Standard
 70
     0
340
55
  0
ENDTAB
  0
TABLE
  2
BLOCK_RECORD
  5
1
330
0
100
AcDbSymbolTable
 70
     4
  0
BLOCK_RECORD
  5
70
102
{ACAD_XDICTIONARY
360
B0
102
}
330
1
100
AcDbSymbolTableRecord
100
AcDbBlockTableRecord
  2
*Model_Space
340
73
 70
     0
280
     1
281
     0
  0
BLOCK_RECORD
  5
6C
330
1
100
AcDbSymbolTableRecord
100
AcDbBlockTableRecord
  2
*Paper_Space
340
6F
 70
     0
280
     1
281
     0
  0
BLOCK_RECORD
  5
74
330
1
100
AcDbSymbolTableRecord
100
AcDbBlockTableRecord
  2
*Paper_Space0
340
77
 70
     0
280
     1
281
     0
  0
BLOCK_RECORD
  5
283
330
1
100
AcDbSymbolTableRecord
100
AcDbBlockTableRecord
  2
AMSTD_Aquawash_5900A.05GT_Top View
340
0
310
2800000020000000200000000100080000000000000400000000000000000000000000000000000000000000000080000080000000808000800000008000800080800000C0C0C000C0DCC000F0CAA6000020400000206000002080000020A0000020C0000020E00000400000004020000040400000406000004080000040A0
310
000040C0000040E00000600000006020000060400000606000006080000060A0000060C0000060E00000800000008020000080400000806000008080000080A0000080C0000080E00000A0000000A0200000A0400000A0600000A0800000A0A00000A0C00000A0E00000C0000000C0200000C0400000C0600000C0800000C0
310
A00000C0C00000C0E00000E0000000E0200000E0400000E0600000E0800000E0A00000E0C00000E0E00040000000400020004000400040006000400080004000A0004000C0004000E00040200000402020004020400040206000402080004020A0004020C0004020E000404000004040200040404000404060004040800040
310
40A0004040C0004040E00040600000406020004060400040606000406080004060A0004060C0004060E00040800000408020004080400040806000408080004080A0004080C0004080E00040A0000040A0200040A0400040A0600040A0800040A0A00040A0C00040A0E00040C0000040C0200040C0400040C0600040C08000
310
40C0A00040C0C00040C0E00040E0000040E0200040E0400040E0600040E0800040E0A00040E0C00040E0E00080000000800020008000400080006000800080008000A0008000C0008000E00080200000802020008020400080206000802080008020A0008020C0008020E00080400000804020008040400080406000804080
310
008040A0008040C0008040E00080600000806020008060400080606000806080008060A0008060C0008060E00080800000808020008080400080806000808080008080A0008080C0008080E00080A0000080A0200080A0400080A0600080A0800080A0A00080A0C00080A0E00080C0000080C0200080C0400080C0600080C0
310
800080C0A00080C0C00080C0E00080E0000080E0200080E0400080E0600080E0800080E0A00080E0C00080E0E000C0000000C0002000C0004000C0006000C0008000C000A000C000C000C000E000C0200000C0202000C0204000C0206000C0208000C020A000C020C000C020E000C0400000C0402000C0404000C0406000C0
310
408000C040A000C040C000C040E000C0600000C0602000C0604000C0606000C0608000C060A000C060C000C060E000C0800000C0802000C0804000C0806000C0808000C080A000C080C000C080E000C0A00000C0A02000C0A04000C0A06000C0A08000C0A0A000C0A0C000C0A0E000C0C00000C0C02000C0C04000C0C06000
310
C0C08000C0C0A000F0FBFF00A4A0A000808080000000FF0000FF000000FFFF00FF000000FF00FF00FFFF0000FFFFFF004949494949494949494949494949494949494949494949494949494949494949494949494949494949494949494949FF4949494949494949494949494949494949494949494949494949494949FFFF
310
49FFFFFF494949494949494949494949494949494949494949494949FFFF494949494949FFFF494949494949494949494949494949494949494949FF49494949494949494949FF49494949494949494949494949494949494949FF494949494949494949494949FF4949494949494949494949494949494949FF4949494949
310
494949494949494949FF49494949494949494949494949494949FF4949494949494949494949494949FF494949494949494949494949494949FF49494949494949494949494949494949FF4949494949494949494949494949FF49494949494949494949494949494949FF49494949494949494949494949FF494949494949
310
494949494949494949494949FF494949494949494949494949FF494949494949494949494949494949494949FF494949494949494949494949FF494949494949494949494949494949494949FF4949494949494949494949FF4949494949494949494949494949494949494949FF49494949494949494949FF494949494949
310
4949494949494949494949494949FF49494949494949494949FF4949494949494949494949494949494949494949FF49494949494949494949FF4949494949494949494949494949494949494949FF49494949494949494949FF4949494949494949494949494949494949494949FF49494949494949494949FF4949494949
310
494949494949494949494949494949FF49494949494949494949FF4949494949494949494949494949494949494949FF49494949494949494949FF4949494949494949494949494949494949494949FF49494949494949494949FF4949494949494949494949494949494949494949FF49494949494949494949FF49494949
310
494949494949494949494949494949FF4949494949494949494949FFFF494949494949494949494949494949494949FF4949494949494949494949FFFF494949494949494949494949494949494949FF494949494949494949494949FFFF49494949494949494949494949494949FF49494949494949494949494949FFFFFF
310
494949494949494949494949494949FF4949494949494949494949494949FFFF494949494949494949494949494949FF494949494949494949494949494949FF4949494949494949494949494949FF4949494949494949494949494949494949FFFFFFFFFFFFFFFFFFFFFFFFFFFFFF49494949494949494949494949494949
310
49FFFFFFFFFFFFFFFFFFFFFFFFFFFF4949494949494949494949494949494949494949494949494949494949494949494949494949494949
102
{BLKREFS
331
29B
102
}
 70
     1
280
     1
281
     0
  0
BLOCK_RECORD
  5
29C
330
1
100
AcDbSymbolTableRecord
100
AcDbBlockTableRecord
  2
AMSTD_Aquawash_5900A.05GT_Front View
340
0
310
2800000020000000200000000100080000000000000400000000000000000000000000000000000000000000000080000080000000808000800000008000800080800000C0C0C000C0DCC000F0CAA6000020400000206000002080000020A0000020C0000020E00000400000004020000040400000406000004080000040A0
310
000040C0000040E00000600000006020000060400000606000006080000060A0000060C0000060E00000800000008020000080400000806000008080000080A0000080C0000080E00000A0000000A0200000A0400000A0600000A0800000A0A00000A0C00000A0E00000C0000000C0200000C0400000C0600000C0800000C0
310
A00000C0C00000C0E00000E0000000E0200000E0400000E0600000E0800000E0A00000E0C00000E0E00040000000400020004000400040006000400080004000A0004000C0004000E00040200000402020004020400040206000402080004020A0004020C0004020E000404000004040200040404000404060004040800040
310
40A0004040C0004040E00040600000406020004060400040606000406080004060A0004060C0004060E00040800000408020004080400040806000408080004080A0004080C0004080E00040A0000040A0200040A0400040A0600040A0800040A0A00040A0C00040A0E00040C0000040C0200040C0400040C0600040C08000
310
40C0A00040C0C00040C0E00040E0000040E0200040E0400040E0600040E0800040E0A00040E0C00040E0E00080000000800020008000400080006000800080008000A0008000C0008000E00080200000802020008020400080206000802080008020A0008020C0008020E00080400000804020008040400080406000804080
310
008040A0008040C0008040E00080600000806020008060400080606000806080008060A0008060C0008060E00080800000808020008080400080806000808080008080A0008080C0008080E00080A0000080A0200080A0400080A0600080A0800080A0A00080A0C00080A0E00080C0000080C0200080C0400080C0600080C0
310
800080C0A00080C0C00080C0E00080E0000080E0200080E0400080E0600080E0800080E0A00080E0C00080E0E000C0000000C0002000C0004000C0006000C0008000C000A000C000C000C000E000C0200000C0202000C0204000C0206000C0208000C020A000C020C000C020E000C0400000C0402000C0404000C0406000C0
310
408000C040A000C040C000C040E000C0600000C0602000C0604000C0606000C0608000C060A000C060C000C060E000C0800000C0802000C0804000C0806000C0808000C080A000C080C000C080E000C0A00000C0A02000C0A04000C0A06000C0A08000C0A0A000C0A0C000C0A0E000C0C00000C0C02000C0C04000C0C06000
310
C0C08000C0C0A000F0FBFF00A4A0A000808080000000FF0000FF000000FFFF00FF000000FF00FF00FFFF0000FFFFFF0049494949494949494949494949494949494949494949494949494949494949494949494949494949494949494949494949494949494949494949494949494949494949494949494949494949494949
310
49494949494949494949494949494949494949494949494949494949494949494949494949494949494949494949494949494949494949494949494949494949494949494949494949494949494949494949494949494949494949494949494949494949494949494949494949494949494949494949494949494949494949
310
49494949494949494949494949494949494949494949494949494949494949494949494949494949494949494949494949494949494949494949494949494949494949494949494949494949494949494949494949494949494949494949494949494949494949494949494949494949494949494949494949494949494949
310
49494949494949494949494949494949494949494949494949494949494949494949494949494949494949494949494949494949494949494949494949494949494949494949494949494949494949494949494949FFFFFFFFFFFFFFFFFFFFFFFFFFFFFFFFFFFFFFFFFFFFFFFFFFFFFFFF494949FFFFFFFFFFFFFFFFFFFFFF
310
FFFFFFFFFFFFFFFFFFFFFFFFFFFFFFFFFFFFFF4949FF49494949494949494949494949494949494949494949494949494949FF4949FFFFFFFFFFFFFFFFFFFFFFFFFFFFFFFFFFFFFFFFFFFFFFFFFFFFFFFFFFFF4949FFFF4949494949494949494949494949494949494949494949494949FFFF494949FFFFFFFFFFFFFFFFFF
310
FFFFFFFFFFFFFFFFFFFFFFFFFFFFFFFFFFFFFF494949494949494949494949494949494949494949494949494949494949494949494949494949494949494949494949494949494949494949494949494949494949494949494949494949494949494949494949494949494949494949494949494949494949494949494949
310
49494949494949494949494949494949494949494949494949494949494949494949494949494949494949494949494949494949494949494949494949494949494949494949494949494949494949494949494949494949494949494949494949494949494949494949494949494949494949494949494949494949494949
310
49494949494949494949494949494949494949494949494949494949494949494949494949494949494949494949494949494949494949494949494949494949494949494949494949494949494949494949494949494949494949494949494949494949494949494949494949494949494949494949494949494949494949
310
4949494949494949494949494949494949494949494949494949494949494949494949494949494949494949494949494949494949494949
102
{BLKREFS
331
2FD
102
}
 70
     1
280
     1
281
     0
  0
BLOCK_RECORD
  5
2FE
330
1
100
AcDbSymbolTableRecord
100
AcDbBlockTableRecord
  2
AMSTD_Aquawash_5900A.05GT_Left View
340
0
310
2800000020000000200000000100080000000000000400000000000000000000000000000000000000000000000080000080000000808000800000008000800080800000C0C0C000C0DCC000F0CAA6000020400000206000002080000020A0000020C0000020E00000400000004020000040400000406000004080000040A0
310
000040C0000040E00000600000006020000060400000606000006080000060A0000060C0000060E00000800000008020000080400000806000008080000080A0000080C0000080E00000A0000000A0200000A0400000A0600000A0800000A0A00000A0C00000A0E00000C0000000C0200000C0400000C0600000C0800000C0
310
A00000C0C00000C0E00000E0000000E0200000E0400000E0600000E0800000E0A00000E0C00000E0E00040000000400020004000400040006000400080004000A0004000C0004000E00040200000402020004020400040206000402080004020A0004020C0004020E000404000004040200040404000404060004040800040
310
40A0004040C0004040E00040600000406020004060400040606000406080004060A0004060C0004060E00040800000408020004080400040806000408080004080A0004080C0004080E00040A0000040A0200040A0400040A0600040A0800040A0A00040A0C00040A0E00040C0000040C0200040C0400040C0600040C08000
310
40C0A00040C0C00040C0E00040E0000040E0200040E0400040E0600040E0800040E0A00040E0C00040E0E00080000000800020008000400080006000800080008000A0008000C0008000E00080200000802020008020400080206000802080008020A0008020C0008020E00080400000804020008040400080406000804080
310
008040A0008040C0008040E00080600000806020008060400080606000806080008060A0008060C0008060E00080800000808020008080400080806000808080008080A0008080C0008080E00080A0000080A0200080A0400080A0600080A0800080A0A00080A0C00080A0E00080C0000080C0200080C0400080C0600080C0
310
800080C0A00080C0C00080C0E00080E0000080E0200080E0400080E0600080E0800080E0A00080E0C00080E0E000C0000000C0002000C0004000C0006000C0008000C000A000C000C000C000E000C0200000C0202000C0204000C0206000C0208000C020A000C020C000C020E000C0400000C0402000C0404000C0406000C0
310
408000C040A000C040C000C040E000C0600000C0602000C0604000C0606000C0608000C060A000C060C000C060E000C0800000C0802000C0804000C0806000C0808000C080A000C080C000C080E000C0A00000C0A02000C0A04000C0A06000C0A08000C0A0A000C0A0C000C0A0E000C0C00000C0C02000C0C04000C0C06000
310
C0C08000C0C0A000F0FBFF00A4A0A000808080000000FF0000FF000000FFFF00FF000000FF00FF00FFFF0000FFFFFF0049494949494949494949494949494949494949494949494949494949494949494949494949494949494949494949494949494949494949494949494949494949494949494949494949494949494949
310
49494949494949494949494949494949494949494949494949494949494949494949494949494949494949494949494949494949494949494949494949494949494949494949494949494949494949494949494949494949494949494949494949494949494949494949494949494949494949494949494949494949494949
310
49494949494949494949494949494949494949494949494949494949494949494949494949494949494949494949494949494949494949494949494949494949494949494949494949494949494949494949494949494949494949494949494949494949494949494949494949494949494949494949494949494949494949
310
4949494949494949494949494949494949494949494949494949494949494949494949494949494949494949494949494949494949494949494949494949494949494949494949494949494949494949494949494949494949494949494949494949494949494949494949494949494949494949FFFFFFFFFFFFFFFFFFFFFF
310
FFFFFFFFFFFFFFFFFFFFFFFFFFFFFFFFFFFFFF494949FFFFFFFFFFFFFFFFFF49494949494949494949494949494949494949FF494949FFFFFFFFFFFFFF4949494949FFFFFFFFFFFFFFFFFFFFFFFFFFFFFFFFFF494949FFFFFFFFFFFFFFFFFFFFFFFF4949494949494949494949494949494949494949494949494949494949
310
49494949494949494949494949494949494949494949494949494949494949494949494949494949494949494949494949494949494949494949494949494949494949494949494949494949494949494949494949494949494949494949494949494949494949494949494949494949494949494949494949494949494949
310
49494949494949494949494949494949494949494949494949494949494949494949494949494949494949494949494949494949494949494949494949494949494949494949494949494949494949494949494949494949494949494949494949494949494949494949494949494949494949494949494949494949494949
310
49494949494949494949494949494949494949494949494949494949494949494949494949494949494949494949494949494949494949494949494949494949494949494949494949494949494949494949494949494949494949494949494949494949494949494949494949494949494949494949494949494949494949
310
4949494949494949494949494949494949494949494949494949494949494949494949494949494949494949494949494949494949494949
102
{BLKREFS
331
353
102
}
 70
     1
280
     1
281
     0
  0
ENDTAB
  0
ENDSEC
  0
SECTION
  2
BLOCKS
  0
BLOCK
  5
71
330
70
100
AcDbEntity
  8
0
100
AcDbBlockBegin
  2
*Model_Space
 70
     0
 10
0.0
 20
0.0
 30
0.0
  3
*Model_Space
  1

  0
ENDBLK
  5
72
330
70
100
AcDbEntity
  8
0
100
AcDbBlockEnd
  0
BLOCK
  5
6D
330
6C
100
AcDbEntity
 67
     1
  8
0
100
AcDbBlockBegin
  2
*Paper_Space
 70
     0
 10
0.0
 20
0.0
 30
0.0
  3
*Paper_Space
  1

  0
ENDBLK
  5
6E
330
6C
100
AcDbEntity
 67
     1
  8
0
100
AcDbBlockEnd
  0
BLOCK
  5
75
330
74
100
AcDbEntity
 67
     1
  8
0
100
AcDbBlockBegin
  2
*Paper_Space0
 70
     0
 10
0.0
 20
0.0
 30
0.0
  3
*Paper_Space0
  1

  0
ENDBLK
  5
76
330
74
100
AcDbEntity
 67
     1
  8
0
100
AcDbBlockEnd
  0
BLOCK
  5
284
330
283
100
AcDbEntity
  8
0
100
AcDbBlockBegin
  2
AMSTD_Aquawash_5900A.05GT_Top View
 70
     0
 10
0.0
 20
0.0
 30
0.0
  3
AMSTD_Aquawash_5900A.05GT_Top View
  1

  0
LINE
  5
286
330
283
100
AcDbEntity
  8
5900A.05GT
100
AcDbLine
 10
-5.741154142471394
 20
-2.384950657105807
 30
0.0
 11
-5.73857287291856
 21
-2.379828369855601
 31
0.0
  0
SPLINE
  5
287
330
283
100
AcDbEntity
  8
5900A.05GT
100
AcDbSpline
210
0.0
220
0.0
230
1.0
 70
     8
 71
     3
 72
    15
 73
    11
 74
     0
 42
0.000000001
 43
0.0000000001
 40
-1.0
 40
-1.0
 40
-1.0
 40
-1.0
 40
-0.75
 40
-0.625
 40
-0.5625
 40
-0.5
 40
-0.4375
 40
-0.375
 40
-0.25
 40
0.0
 40
0.0
 40
0.0
 40
0.0
 10
-4.49421203342678
 20
-0.3490043955204491
 30
0.0
 10
-4.474586313035018
 20
-0.3228496365080211
 30
0.0
 10
-4.447404854552065
 20
-0.2853272403840492
 30
0.0
 10
-4.418707368686042
 20
-0.2468634742227778
 30
0.0
 10
-4.403465261371364
 20
-0.226698743971685
 30
0.0
 10
-4.392961229210714
 20
-0.2125480955698862
 30
0.0
 10
-4.383222539112388
 20
-0.1994395796154897
 30
0.0
 10
-4.371064187141998
 20
-0.1834953218055979
 30
0.0
 10
-4.353273024183337
 20
-0.1600407434876736
 30
0.0
 10
-4.344982140745536
 20
-0.1485375293325895
 30
0.0
 10
-4.342154675829469
 20
-0.1453289259391361
 30
0.0
  0
SPLINE
  5
288
330
283
100
AcDbEntity
  8
5900A.05GT
100
AcDbSpline
210
0.0
220
0.0
230
1.0
 70
     8
 71
     3
 72
    14
 73
    10
 74
     0
 42
0.000000001
 43
0.0000000001
 40
-1.0
 40
-1.0
 40
-1.0
 40
-1.0
 40
-0.8
 40
-0.6
 40
-0.5
 40
-0.4
 40
-0.3
 40
-0.2
 40
0.0
 40
0.0
 40
0.0
 40
0.0
 10
-4.697127976197455
 20
-0.6330166293362148
 30
0.0
 10
-4.69083574414126
 20
-0.6241227220791111
 30
0.0
 10
-4.678464529251
 20
-0.6061920407836539
 30
0.0
 10
-4.66328960086923
 20
-0.584623051006389
 30
0.0
 10
-4.651762371386118
 20
-0.5682518254615161
 30
0.0
 10
-4.643541966689182
 20
-0.5565832885763094
 30
0.0
 10
-4.635816326392591
 20
-0.5456550715431554
 30
0.0
 10
-4.626380960108662
 20
-0.5323700075170131
 30
0.0
 10
-4.620708905887207
 20
-0.524131058240176
 30
0.0
 10
-4.617431482306637
 20
-0.5197281559566349
 30
0.0
  0
ARC
  5
289
330
283
100
AcDbEntity
  8
5900A.05GT
100
AcDbCircle
 10
-7.126828071665872
 20
-8.866289692687097
 30
0.0
 40
14.40807835755707
100
AcDbArc
 50
323.4544924058839
 51
37.97876221075154
1001
REVIT
1002
{
1070
     1
1000
58039
1002
}
1002
{
1070
     2
1000
-2001350
1002
}
  0
LINE
  5
28A
330
283
100
AcDbEntity
  8
5900A.05GT
100
AcDbLine
 10
4.230179854846056
 20
0.0
 30
0.0
 11
-4.230179854846056
 21
0.0
 31
0.0
1001
REVIT
1002
{
1070
     1
1000
58039
1002
}
1002
{
1070
     2
1000
-2001350
1002
}
  0
ARC
  5
28B
330
283
100
AcDbEntity
  8
5900A.05GT
100
AcDbCircle
 10
7.126828071666533
 20
-8.866289692687523
 30
0.0
 40
14.40807835755781
100
AcDbArc
 50
142.0212377892482
 51
146.6705542409521
1001
REVIT
1002
{
1070
     1
1000
58039
1002
}
1002
{
1070
     2
1000
-2001350
1002
}
  0
LINE
  5
28C
330
283
100
AcDbEntity
  8
5900A.05GT
100
AcDbLine
 10
-4.911482955381902
 20
-0.9497380713330443
 30
0.0
 11
-5.331509544309689
 21
-0.7968608953629613
 31
0.0
1001
REVIT
1002
{
1070
     1
1000
58039
1002
}
1002
{
1070
     2
1000
-2001350
1002
}
  0
LINE
  5
28D
330
283
100
AcDbEntity
  8
5900A.05GT
100
AcDbLine
 10
-5.331509544309689
 20
-0.7968608953629613
 30
0.0
 11
-5.781819683447515
 21
-1.538761432549044
 31
0.0
1001
REVIT
1002
{
1070
     1
1000
58039
1002
}
1002
{
1070
     2
1000
-2001350
1002
}
  0
LINE
  5
28E
330
283
100
AcDbEntity
  8
5900A.05GT
100
AcDbLine
 10
-5.781819683447515
 20
-1.538761432549044
 30
0.0
 11
-5.442597628280516
 21
-1.823402533926874
 31
0.0
1001
REVIT
1002
{
1070
     1
1000
58039
1002
}
1002
{
1070
     2
1000
-2001350
1002
}
  0
ARC
  5
28F
330
283
100
AcDbEntity
  8
5900A.05GT
100
AcDbCircle
 10
7.126828071666007
 20
-8.866289692687139
 30
0.0
 40
14.40807835755716
100
AcDbArc
 50
150.7372646669795
 51
155.7966208841823
1001
REVIT
1002
{
1070
     1
1000
58039
1002
}
1002
{
1070
     2
1000
-2001350
1002
}
  0
LINE
  5
290
330
283
100
AcDbEntity
  8
5900A.05GT
100
AcDbLine
 10
-6.014721682437997
 20
-2.959311445062041
 30
0.0
 11
-6.47953514539574
 21
-2.790133180059221
 31
0.0
1001
REVIT
1002
{
1070
     1
1000
58039
1002
}
1002
{
1070
     2
1000
-2001350
1002
}
  0
LINE
  5
291
330
283
100
AcDbEntity
  8
5900A.05GT
100
AcDbLine
 10
-6.47953514539574
 20
-2.790133180059221
 30
0.0
 11
-6.845828358460954
 21
-3.653065912644088
 31
0.0
1001
REVIT
1002
{
1070
     1
1000
58039
1002
}
1002
{
1070
     2
1000
-2001350
1002
}
  0
LINE
  5
292
330
283
100
AcDbEntity
  8
5900A.05GT
100
AcDbLine
 10
-6.845828358460948
 20
-3.65306591264408
 30
0.0
 11
-7.133593823601913
 21
-4.217837437651315
 31
0.0
1001
REVIT
1002
{
1070
     1
1000
58039
1002
}
1002
{
1070
     2
1000
-2001350
1002
}
  0
ARC
  5
293
330
283
100
AcDbEntity
  8
5900A.05GT
100
AcDbCircle
 10
-7.018170056577067
 20
-4.276648784426988
 30
0.0
 40
0.1295431221785807
100
AcDbArc
 50
153.0
 51
332.9999999999996
1001
REVIT
1002
{
1070
     1
1000
58039
1002
}
1002
{
1070
     2
1000
-2001350
1002
}
  0
LINE
  5
294
330
283
100
AcDbEntity
  8
5900A.05GT
100
AcDbLine
 10
-6.90274628955222
 20
-4.335460131202665
 30
0.0
 11
-6.54401477514216
 21
-3.631409892365702
 31
0.0
1001
REVIT
1002
{
1070
     1
1000
58039
1002
}
1002
{
1070
     2
1000
-2001350
1002
}
  0
LINE
  5
295
330
283
100
AcDbEntity
  8
5900A.05GT
100
AcDbLine
 10
-6.54401477514216
 20
-3.631409892365702
 30
0.0
 11
-6.337227214114042
 21
-3.736773417348416
 31
0.0
1001
REVIT
1002
{
1070
     1
1000
58039
1002
}
1002
{
1070
     2
1000
-2001350
1002
}
  0
ARC
  5
296
330
283
100
AcDbEntity
  8
5900A.05GT
100
AcDbCircle
 10
7.126828071665915
 20
-8.8662896926871
 30
0.0
 40
14.40807835755706
100
AcDbArc
 50
159.1442325583794
 51
216.5455075941146
1001
REVIT
1002
{
1070
     1
1000
58039
1002
}
1002
{
1070
     2
1000
-2001350
1002
}
  0
ARC
  5
297
330
283
100
AcDbEntity
  8
5900A.05GT
100
AcDbCircle
 10
0.0000000000000253
 20
-14.14863012618076
 30
0.0
 40
5.537069462374558
100
AcDbArc
 50
216.5455075941146
 51
323.4544924058849
1001
REVIT
1002
{
1070
     1
1000
58039
1002
}
1002
{
1070
     2
1000
-2001350
1002
}
  0
ARC
  5
298
330
283
100
AcDbEntity
  8
5900A.05GT
100
AcDbCircle
 10
7.126828071700074
 20
-8.866289692701045
 30
0.0
 40
14.40807835759393
100
AcDbArc
 50
155.7966208841883
 51
159.1442325583767
1001
REVIT
1002
{
1070
     1
1000
58754
1002
}
1002
{
1070
     2
1000
-2001350
1002
}
  0
ARC
  5
299
330
283
100
AcDbEntity
  8
5900A.05GT
100
AcDbCircle
 10
7.126828071787709
 20
-8.866289692760762
 30
0.0
 40
14.4080783576993
100
AcDbArc
 50
146.6705542409743
 51
150.7372646669615
1001
REVIT
1002
{
1070
     1
1000
58825
1002
}
1002
{
1070
     2
1000
-2001350
1002
}
  0
LINE
  5
29A
330
283
100
AcDbEntity
  8
5900A.05GT
100
AcDbLine
 10
-4.494212033426778
 20
-0.3490043955204527
 30
0.0
 11
4.494212033426833
 21
-0.3490043955204811
 31
0.0
1001
REVIT
1002
{
1070
     1
1000
59006
1002
}
1002
{
1070
     2
1000
-2001350
1002
}
  0
ENDBLK
  5
285
330
283
100
AcDbEntity
  8
0
100
AcDbBlockEnd
  0
BLOCK
  5
29D
330
29C
100
AcDbEntity
  8
0
100
AcDbBlockBegin
  2
AMSTD_Aquawash_5900A.05GT_Front View
 70
     0
 10
0.0
 20
0.0
 30
0.0
  3
AMSTD_Aquawash_5900A.05GT_Front View
  1

  0
LINE
  5
29F
330
29C
100
AcDbEntity
  8
5900A.05GT
100
AcDbLine
 10
-7.281250285890432
 20
1.876047475325659
 30
0.0
 11
-7.281250285890432
 21
0.1875000000003054
 31
0.0
1001
REVIT
1002
{
1070
     2
1000
-2001350
1002
}
  0
LINE
  5
2A0
330
29C
100
AcDbEntity
  8
5900A.05GT
100
AcDbLine
 10
7.281250285891913
 20
0.1875000000001845
 30
0.0
 11
7.281250285891913
 21
1.876047475325531
 31
0.0
1001
REVIT
1002
{
1070
     2
1000
-2001350
1002
}
  0
LINE
  5
2A1
330
29C
100
AcDbEntity
  8
5900A.05GT
100
AcDbLine
 10
6.447504062185201
 20
2.437500000000227
 30
0.0
 11
-6.447504062183718
 21
2.437500000000359
 31
0.0
1001
REVIT
1002
{
1070
     2
1000
-2001350
1002
}
  0
LINE
  5
2A2
330
29C
100
AcDbEntity
  8
5900A.05GT
100
AcDbLine
 10
-7.070157799896236
 20
0.000000000000029
 30
0.0
 11
-6.607769860083262
 21
0.000000000000024
 31
0.0
1001
REVIT
1002
{
1070
     2
1000
-2001350
1002
}
  0
LINE
  5
2A3
330
29C
100
AcDbEntity
  8
5900A.05GT
100
AcDbLine
 10
-3.428769796337886
 20
-0.0000000000000083
 30
0.0
 11
3.428769796339363
 21
-0.0000000000000786
 31
0.0
1001
REVIT
1002
{
1070
     2
1000
-2001350
1002
}
  0
LINE
  5
2A4
330
29C
100
AcDbEntity
  8
5900A.05GT
100
AcDbLine
 10
6.607769860084743
 20
-0.0000000000001112
 30
0.0
 11
7.070157799897715
 21
-0.0000000000001162
 31
0.0
1001
REVIT
1002
{
1070
     2
1000
-2001350
1002
}
  0
LINE
  5
2A5
330
29C
100
AcDbEntity
  8
5900A.05GT
100
AcDbLine
 10
-6.607769860083264
 20
0.1875000000002984
 30
0.0
 11
-6.607769860083262
 21
0.0
 31
0.0
1001
REVIT
1002
{
1070
     2
1000
-2001350
1002
}
  0
LINE
  5
2A6
330
29C
100
AcDbEntity
  8
5900A.05GT
100
AcDbLine
 10
6.607769860084743
 20
0.0
 30
0.0
 11
6.607769860084743
 21
0.1875000000001628
 31
0.0
1001
REVIT
1002
{
1070
     2
1000
-2001350
1002
}
  0
LINE
  5
2A7
330
29C
100
AcDbEntity
  8
5900A.05GT
100
AcDbLine
 10
-4.951724011441246
 20
0.1875000000002658
 30
0.0
 11
-4.951724011441245
 21
0.0
 31
0.0
1001
REVIT
1002
{
1070
     2
1000
-2001350
1002
}
  0
LINE
  5
2A8
330
29C
100
AcDbEntity
  8
5900A.05GT
100
AcDbLine
 10
-3.427181915313456
 20
0.0
 30
0.0
 11
-3.427181915313456
 21
0.1875000000002651
 31
0.0
1001
REVIT
1002
{
1070
     2
1000
-2001350
1002
}
  0
LINE
  5
2A9
330
29C
100
AcDbEntity
  8
5900A.05GT
100
AcDbLine
 10
3.427181915314934
 20
0.1875000000001945
 30
0.0
 11
3.427181915314934
 21
0.0
 31
0.0
1001
REVIT
1002
{
1070
     2
1000
-2001350
1002
}
  0
LINE
  5
2AA
330
29C
100
AcDbEntity
  8
5900A.05GT
100
AcDbLine
 10
4.951724011442722
 20
0.0
 30
0.0
 11
4.951724011442725
 21
0.1875000000001795
 31
0.0
1001
REVIT
1002
{
1070
     2
1000
-2001350
1002
}
  0
SPLINE
  5
2AB
330
29C
100
AcDbEntity
  8
5900A.05GT
100
AcDbSpline
210
0.0
220
0.0
230
1.0
 70
     8
 71
     3
 72
     9
 73
     5
 74
     0
 42
0.000000001
 43
0.0000000001
 40
-1.0
 40
-1.0
 40
-1.0
 40
-1.0
 40
-0.5
 40
0.0
 40
0.0
 40
0.0
 40
0.0
 10
-6.704731335904243
 20
2.373764770646195
 30
0.0
 10
-6.665956251887135
 20
2.395174893155298
 30
0.0
 10
-6.584309955583267
 20
2.427059697660745
 30
0.0
 10
-6.494471402740091
 20
2.43750000000036
 30
0.0
 10
-6.447504062183683
 20
2.437500000000357
 30
0.0
1001
REVIT
1002
{
1070
     2
1000
-2001350
1002
}
  0
SPLINE
  5
2AC
330
29C
100
AcDbEntity
  8
5900A.05GT
100
AcDbSpline
210
0.0
220
0.0
230
1.0
 70
     8
 71
     3
 72
     9
 73
     5
 74
     0
 42
0.000000001
 43
0.0000000001
 40
-1.0
 40
-1.0
 40
-1.0
 40
-1.0
 40
-0.5
 40
0.0
 40
0.0
 40
0.0
 40
0.0
 10
6.447504062185164
 20
2.437500000000224
 30
0.0
 10
6.494471402741573
 20
2.437500000000226
 30
0.0
 10
6.584309955584742
 20
2.427059697660609
 30
0.0
 10
6.665956251888617
 20
2.395174893155161
 30
0.0
 10
6.704731335905725
 20
2.373764770646058
 30
0.0
1001
REVIT
1002
{
1070
     2
1000
-2001350
1002
}
  0
SPLINE
  5
2AD
330
29C
100
AcDbEntity
  8
5900A.05GT
100
AcDbSpline
210
0.0
220
0.0
230
1.0
 70
     8
 71
     3
 72
    10
 73
     6
 74
     0
 42
0.000000001
 43
0.0000000001
 40
-1.0
 40
-1.0
 40
-1.0
 40
-1.0
 40
-0.6666666666666666
 40
-0.3333333333333333
 40
0.0
 40
0.0
 40
0.0
 40
0.0
 10
-7.281249999999191
 20
1.87580137399011
 30
0.0
 10
-7.28113073724119
 20
1.915018913065637
 30
0.0
 10
-7.238245963782338
 20
2.004553240464422
 30
0.0
 10
-7.04430577203233
 20
2.172152066302426
 30
0.0
 10
-6.831952198624204
 20
2.303428601259323
 30
0.0
 10
-6.704731335904245
 20
2.373764770646182
 30
0.0
1001
REVIT
1002
{
1070
     2
1000
-2001350
1002
}
  0
SPLINE
  5
2AE
330
29C
100
AcDbEntity
  8
5900A.05GT
100
AcDbSpline
210
0.0
220
0.0
230
1.0
 70
     8
 71
     3
 72
    11
 73
     7
 74
     0
 42
0.000000001
 43
0.0000000001
 40
-1.0
 40
-1.0
 40
-1.0
 40
-1.0
 40
-0.75
 40
-0.5
 40
-0.25
 40
0.0
 40
0.0
 40
0.0
 40
0.0
 10
-6.505236864524451
 20
1.676492650557417
 30
0.0
 10
-6.63368504569771
 20
1.676492650557419
 30
0.0
 10
-6.85883649912783
 20
1.684222458551567
 30
0.0
 10
-7.102159713089757
 20
1.720645914976359
 30
0.0
 10
-7.248586679170588
 20
1.783040854613419
 30
0.0
 10
-7.281176344335843
 20
1.841931340463269
 30
0.0
 10
-7.281249999999191
 20
1.87580137399011
 30
0.0
1001
REVIT
1002
{
1070
     2
1000
-2001350
1002
}
  0
SPLINE
  5
2AF
330
29C
100
AcDbEntity
  8
5900A.05GT
100
AcDbSpline
210
0.0
220
0.0
230
1.0
 70
     8
 71
     3
 72
    11
 73
     7
 74
     0
 42
0.000000001
 43
0.0000000001
 40
-1.0
 40
-1.0
 40
-1.0
 40
-1.0
 40
-0.75
 40
-0.5
 40
-0.25
 40
0.0
 40
0.0
 40
0.0
 40
0.0
 10
7.281250000000614
 20
1.875801373965895
 30
0.0
 10
7.28117634433112
 20
1.841931340444729
 30
0.0
 10
7.248586679156386
 20
1.783040854602976
 30
0.0
 10
7.102159713065238
 20
1.720645914970186
 30
0.0
 10
6.85883649911046
 20
1.6842224585507
 30
0.0
 10
6.633685045691549
 20
1.676492650557289
 30
0.0
 10
6.505236864525936
 20
1.676492650557289
 30
0.0
1001
REVIT
1002
{
1070
     2
1000
-2001350
1002
}
  0
SPLINE
  5
2B0
330
29C
100
AcDbEntity
  8
5900A.05GT
100
AcDbSpline
210
0.0
220
0.0
230
1.0
 70
     8
 71
     3
 72
    10
 73
     6
 74
     0
 42
0.000000001
 43
0.0000000001
 40
-1.0
 40
-1.0
 40
-1.0
 40
-1.0
 40
-0.6666666666666666
 40
-0.3333333333333333
 40
0.0
 40
0.0
 40
0.0
 40
0.0
 10
6.704731335905725
 20
2.373764770646054
 30
0.0
 10
6.831952198634417
 20
2.303428601254365
 30
0.0
 10
7.044305772054187
 20
2.172152066289099
 30
0.0
 10
7.238245963804467
 20
2.004553240442849
 30
0.0
 10
7.281130737251484
 20
1.915018913041768
 30
0.0
 10
7.281250000000613
 20
1.875801373965895
 30
0.0
1001
REVIT
1002
{
1070
     2
1000
-2001350
1002
}
  0
LINE
  5
2B1
330
29C
100
AcDbEntity
  8
5900A.05GT
100
AcDbLine
 10
-4.448393925141881
 20
1.676492650557409
 30
0.0
 11
-6.50523686452448
 21
1.676492650557409
 31
0.0
1001
REVIT
1002
{
1070
     2
1000
-2001350
1002
}
  0
LINE
  5
2B2
330
29C
100
AcDbEntity
  8
5900A.05GT
100
AcDbLine
 10
4.448393925143225
 20
1.676492650557317
 30
0.0
 11
-4.448393925141846
 21
1.676492650557317
 31
0.0
1001
REVIT
1002
{
1070
     2
1000
-2001350
1002
}
  0
LINE
  5
2B3
330
29C
100
AcDbEntity
  8
5900A.05GT
100
AcDbLine
 10
6.50523686452596
 20
1.676492650557283
 30
0.0
 11
4.448393925143299
 21
1.676492650557283
 31
0.0
1001
REVIT
1002
{
1070
     2
1000
-2001350
1002
}
  0
LINE
  5
2B4
330
29C
100
AcDbEntity
  8
5900A.05GT
100
AcDbLine
 10
4.448393925143298
 20
0.1875000000001841
 30
0.0
 11
7.281250285891903
 21
0.1875000000001841
 31
0.0
1001
REVIT
1002
{
1070
     2
1000
-2001350
1002
}
  0
LINE
  5
2B5
330
29C
100
AcDbEntity
  8
5900A.05GT
100
AcDbLine
 10
-4.448393925141865
 20
0.1875000000002754
 30
0.0
 11
4.448393925143207
 21
0.1875000000002754
 31
0.0
1001
REVIT
1002
{
1070
     2
1000
-2001350
1002
}
  0
LINE
  5
2B6
330
29C
100
AcDbEntity
  8
5900A.05GT
100
AcDbLine
 10
-7.28124999999919
 20
0.1875000000003059
 30
0.0
 11
-4.448393925141936
 21
0.1875000000003059
 31
0.0
1001
REVIT
1002
{
1070
     2
1000
-2001350
1002
}
  0
SPLINE
  5
2B7
330
29C
100
AcDbEntity
  8
5900A.05GT
100
AcDbSpline
210
0.0
220
0.0
230
1.0
 70
     8
 71
     3
 72
     8
 73
     4
 74
     0
 42
0.000000001
 43
0.0000000001
 40
-1.0
 40
-1.0
 40
-1.0
 40
-1.0
 40
-0.9786723936537015
 40
-0.9786723936537015
 40
-0.9786723936537015
 40
-0.9786723936537015
 10
-7.082590440858139
 20
0.1485000250058527
 30
0.0
 10
-7.080788541938823
 20
0.1626312192777603
 30
0.0
 10
-7.078946880246091
 20
0.1766489386725811
 30
0.0
 10
-7.077065268783622
 20
0.1905509251393007
 30
0.0
1001
REVIT
1002
{
1070
     2
1000
-2001350
1002
}
  0
SPLINE
  5
2B8
330
29C
100
AcDbEntity
  8
5900A.05GT
100
AcDbSpline
210
0.0
220
0.0
230
1.0
 70
     8
 71
     3
 72
     8
 73
     4
 74
     0
 42
0.000000001
 43
0.0000000001
 40
-0.0213276063462986
 40
-0.0213276063462986
 40
-0.0213276063462986
 40
-0.0213276063462986
 40
0.0
 40
0.0
 40
0.0
 40
0.0
 10
7.077067083917534
 20
0.1905486862899641
 30
0.0
 10
7.07894751126988
 20
0.176648141977597
 30
0.0
 10
7.080788541940304
 20
0.1626312192776151
 30
0.0
 10
7.082590440859618
 20
0.1485000250057071
 30
0.0
1001
REVIT
1002
{
1070
     2
1000
-2001350
1002
}
  0
SPLINE
  5
2B9
330
29C
100
AcDbEntity
  8
5900A.05GT
100
AcDbSpline
210
0.0
220
0.0
230
1.0
 70
     8
 71
     3
 72
    13
 73
     9
 74
     0
 42
0.000000001
 43
0.0000000001
 40
-1.0
 40
-1.0
 40
-1.0
 40
-1.0
 40
-0.8333333333333332
 40
-0.6666666666666666
 40
-0.4444444444444445
 40
-0.2222222222222222
 40
-0.1111111111111111
 40
0.0
 40
0.0
 40
0.0
 40
0.0
 10
7.082590440859618
 20
0.1485000250056928
 30
0.0
 10
7.083778574288294
 20
0.1394627120215529
 30
0.0
 10
7.085517520707548
 20
0.1187277389467685
 30
0.0
 10
7.086172271292846
 20
0.0799750719011245
 30
0.0
 10
7.083779321711448
 20
0.0390647170640431
 30
0.0
 10
7.078913079503484
 20
0.0127981059914341
 30
0.0
 10
7.074047935566924
 20
0.0018598066086279
 30
0.0
 10
7.071486799471399
 20
-0.0000000000001161
 30
0.0
 10
7.070157799897705
 20
-0.0000000000001162
 30
0.0
1001
REVIT
1002
{
1070
     2
1000
-2001350
1002
}
  0
SPLINE
  5
2BA
330
29C
100
AcDbEntity
  8
5900A.05GT
100
AcDbSpline
210
0.0
220
0.0
230
1.0
 70
     8
 71
     3
 72
    13
 73
     9
 74
     0
 42
0.000000001
 43
0.0000000001
 40
-1.0
 40
-1.0
 40
-1.0
 40
-1.0
 40
-0.861111111111111
 40
-0.7222222222222223
 40
-0.5833333333333333
 40
-0.4444444444444445
 40
-0.2222222222222222
 40
0.0
 40
0.0
 40
0.0
 40
0.0
 10
-7.070157799896228
 20
0.0000000000000291
 30
0.0
 10
-7.071819049363343
 20
0.0000000000000292
 30
0.0
 10
-7.075010184833879
 20
0.0029096846071249
 30
0.0
 10
-7.079404685022805
 20
0.0156490263397031
 30
0.0
 10
-7.08288870989278
 20
0.0356787833520605
 30
0.0
 10
-7.085635416227704
 20
0.0662804289255185
 30
0.0
 10
-7.086232859201768
 20
0.1075669499477237
 30
0.0
 10
-7.084174618763038
 20
0.1364502743603175
 30
0.0
 10
-7.082590440858139
 20
0.1485000250058385
 30
0.0
1001
REVIT
1002
{
1070
     2
1000
-2001350
1002
}
  0
LINE
  5
2BB
330
29C
100
AcDbEntity
  8
5900A.05GT
100
AcDbLine
 10
-4.950770109945914
 20
0.0
 30
0.0
 11
-4.966689502731317
 21
0.0
 31
0.0
1001
REVIT
1002
{
1070
     2
1000
-2001350
1002
}
  0
LINE
  5
2BC
330
29C
100
AcDbEntity
  8
5900A.05GT
100
AcDbLine
 10
-4.966689502731317
 20
0.0
 30
0.0
 11
-5.013835907750483
 21
0.0
 31
0.0
1001
REVIT
1002
{
1070
     2
1000
-2001350
1002
}
  0
LINE
  5
2BD
330
29C
100
AcDbEntity
  8
5900A.05GT
100
AcDbLine
 10
-5.013835907750483
 20
0.0
 30
0.0
 11
-5.090397515098531
 21
0.0
 31
0.0
1001
REVIT
1002
{
1070
     2
1000
-2001350
1002
}
  0
LINE
  5
2BE
330
29C
100
AcDbEntity
  8
5900A.05GT
100
AcDbLine
 10
-5.090397515098531
 20
0.0
 30
0.0
 11
-5.193432105141321
 21
0.0
 31
0.0
1001
REVIT
1002
{
1070
     2
1000
-2001350
1002
}
  0
LINE
  5
2BF
330
29C
100
AcDbEntity
  8
5900A.05GT
100
AcDbLine
 10
-5.193432105141321
 20
0.0
 30
0.0
 11
-5.318980116365974
 21
0.0
 31
0.0
1001
REVIT
1002
{
1070
     2
1000
-2001350
1002
}
  0
LINE
  5
2C0
330
29C
100
AcDbEntity
  8
5900A.05GT
100
AcDbLine
 10
-5.318980116365974
 20
0.0
 30
0.0
 11
-5.46221680910926
 21
0.0
 31
0.0
1001
REVIT
1002
{
1070
     2
1000
-2001350
1002
}
  0
LINE
  5
2C1
330
29C
100
AcDbEntity
  8
5900A.05GT
100
AcDbLine
 10
-5.46221680910926
 20
0.0
 30
0.0
 11
-5.617637677597118
 21
0.0
 31
0.0
1001
REVIT
1002
{
1070
     2
1000
-2001350
1002
}
  0
LINE
  5
2C2
330
29C
100
AcDbEntity
  8
5900A.05GT
100
AcDbLine
 10
-5.617637677597118
 20
0.0
 30
0.0
 11
-5.779269985014587
 21
0.0
 31
0.0
1001
REVIT
1002
{
1070
     2
1000
-2001350
1002
}
  0
LINE
  5
2C3
330
29C
100
AcDbEntity
  8
5900A.05GT
100
AcDbLine
 10
-5.779269985014587
 20
0.0
 30
0.0
 11
-5.940902292432055
 21
0.0
 31
0.0
1001
REVIT
1002
{
1070
     2
1000
-2001350
1002
}
  0
LINE
  5
2C4
330
29C
100
AcDbEntity
  8
5900A.05GT
100
AcDbLine
 10
-5.940902292432055
 20
0.0
 30
0.0
 11
-6.096323160919913
 21
0.0
 31
0.0
1001
REVIT
1002
{
1070
     2
1000
-2001350
1002
}
  0
LINE
  5
2C5
330
29C
100
AcDbEntity
  8
5900A.05GT
100
AcDbLine
 10
-6.096323160919913
 20
0.0
 30
0.0
 11
-6.239559853663198
 21
0.0
 31
0.0
1001
REVIT
1002
{
1070
     2
1000
-2001350
1002
}
  0
LINE
  5
2C6
330
29C
100
AcDbEntity
  8
5900A.05GT
100
AcDbLine
 10
-6.239559853663198
 20
0.0
 30
0.0
 11
-6.365107864887851
 21
0.0
 31
0.0
1001
REVIT
1002
{
1070
     2
1000
-2001350
1002
}
  0
LINE
  5
2C7
330
29C
100
AcDbEntity
  8
5900A.05GT
100
AcDbLine
 10
-6.365107864887851
 20
0.0
 30
0.0
 11
-6.46814245493064
 21
0.0
 31
0.0
1001
REVIT
1002
{
1070
     2
1000
-2001350
1002
}
  0
LINE
  5
2C8
330
29C
100
AcDbEntity
  8
5900A.05GT
100
AcDbLine
 10
-6.46814245493064
 20
0.0
 30
0.0
 11
-6.544704062278687
 21
0.0
 31
0.0
1001
REVIT
1002
{
1070
     2
1000
-2001350
1002
}
  0
LINE
  5
2C9
330
29C
100
AcDbEntity
  8
5900A.05GT
100
AcDbLine
 10
-6.544704062278687
 20
0.0
 30
0.0
 11
-6.591850467297851
 21
0.0
 31
0.0
1001
REVIT
1002
{
1070
     2
1000
-2001350
1002
}
  0
LINE
  5
2CA
330
29C
100
AcDbEntity
  8
5900A.05GT
100
AcDbLine
 10
-6.591850467297851
 20
0.0
 30
0.0
 11
-6.607769860083254
 21
0.0
 31
0.0
1001
REVIT
1002
{
1070
     2
1000
-2001350
1002
}
  0
LINE
  5
2CB
330
29C
100
AcDbEntity
  8
5900A.05GT
100
AcDbLine
 10
6.607769860084733
 20
0.0
 30
0.0
 11
6.591850467299328
 21
0.0
 31
0.0
1001
REVIT
1002
{
1070
     2
1000
-2001350
1002
}
  0
LINE
  5
2CC
330
29C
100
AcDbEntity
  8
5900A.05GT
100
AcDbLine
 10
6.591850467299328
 20
0.0
 30
0.0
 11
6.544704062280166
 21
0.0
 31
0.0
1001
REVIT
1002
{
1070
     2
1000
-2001350
1002
}
  0
LINE
  5
2CD
330
29C
100
AcDbEntity
  8
5900A.05GT
100
AcDbLine
 10
6.544704062280166
 20
0.0
 30
0.0
 11
6.468142454932116
 21
0.0
 31
0.0
1001
REVIT
1002
{
1070
     2
1000
-2001350
1002
}
  0
LINE
  5
2CE
330
29C
100
AcDbEntity
  8
5900A.05GT
100
AcDbLine
 10
6.468142454932116
 20
0.0
 30
0.0
 11
6.365107864889325
 21
0.0
 31
0.0
1001
REVIT
1002
{
1070
     2
1000
-2001350
1002
}
  0
LINE
  5
2CF
330
29C
100
AcDbEntity
  8
5900A.05GT
100
AcDbLine
 10
6.365107864889325
 20
0.0
 30
0.0
 11
6.239559853664674
 21
0.0
 31
0.0
1001
REVIT
1002
{
1070
     2
1000
-2001350
1002
}
  0
LINE
  5
2D0
330
29C
100
AcDbEntity
  8
5900A.05GT
100
AcDbLine
 10
6.239559853664674
 20
0.0
 30
0.0
 11
6.096323160921388
 21
0.0
 31
0.0
1001
REVIT
1002
{
1070
     2
1000
-2001350
1002
}
  0
LINE
  5
2D1
330
29C
100
AcDbEntity
  8
5900A.05GT
100
AcDbLine
 10
6.096323160921388
 20
0.0
 30
0.0
 11
5.940902292433531
 21
0.0
 31
0.0
1001
REVIT
1002
{
1070
     2
1000
-2001350
1002
}
  0
LINE
  5
2D2
330
29C
100
AcDbEntity
  8
5900A.05GT
100
AcDbLine
 10
5.940902292433531
 20
0.0
 30
0.0
 11
5.779269985016063
 21
0.0
 31
0.0
1001
REVIT
1002
{
1070
     2
1000
-2001350
1002
}
  0
LINE
  5
2D3
330
29C
100
AcDbEntity
  8
5900A.05GT
100
AcDbLine
 10
5.779269985016063
 20
0.0
 30
0.0
 11
5.617637677598593
 21
0.0
 31
0.0
1001
REVIT
1002
{
1070
     2
1000
-2001350
1002
}
  0
LINE
  5
2D4
330
29C
100
AcDbEntity
  8
5900A.05GT
100
AcDbLine
 10
5.617637677598593
 20
0.0
 30
0.0
 11
5.462216809110735
 21
0.0
 31
0.0
1001
REVIT
1002
{
1070
     2
1000
-2001350
1002
}
  0
LINE
  5
2D5
330
29C
100
AcDbEntity
  8
5900A.05GT
100
AcDbLine
 10
5.462216809110735
 20
0.0
 30
0.0
 11
5.318980116367449
 21
0.0
 31
0.0
1001
REVIT
1002
{
1070
     2
1000
-2001350
1002
}
  0
LINE
  5
2D6
330
29C
100
AcDbEntity
  8
5900A.05GT
100
AcDbLine
 10
5.318980116367449
 20
0.0
 30
0.0
 11
5.193432105142798
 21
0.0
 31
0.0
1001
REVIT
1002
{
1070
     2
1000
-2001350
1002
}
  0
LINE
  5
2D7
330
29C
100
AcDbEntity
  8
5900A.05GT
100
AcDbLine
 10
5.193432105142798
 20
0.0
 30
0.0
 11
5.090397515100008
 21
0.0
 31
0.0
1001
REVIT
1002
{
1070
     2
1000
-2001350
1002
}
  0
LINE
  5
2D8
330
29C
100
AcDbEntity
  8
5900A.05GT
100
AcDbLine
 10
5.090397515100008
 20
0.0
 30
0.0
 11
5.01383590775196
 21
0.0
 31
0.0
1001
REVIT
1002
{
1070
     2
1000
-2001350
1002
}
  0
LINE
  5
2D9
330
29C
100
AcDbEntity
  8
5900A.05GT
100
AcDbLine
 10
5.01383590775196
 20
0.0
 30
0.0
 11
4.966689502732797
 21
0.0
 31
0.0
1001
REVIT
1002
{
1070
     2
1000
-2001350
1002
}
  0
LINE
  5
2DA
330
29C
100
AcDbEntity
  8
5900A.05GT
100
AcDbLine
 10
4.966689502732797
 20
0.0
 30
0.0
 11
4.950770109947392
 21
0.0
 31
0.0
1001
REVIT
1002
{
1070
     2
1000
-2001350
1002
}
  0
LINE
  5
2DB
330
29C
100
AcDbEntity
  8
5900A.05GT
100
AcDbLine
 10
-3.427202537002819
 20
0.0
 30
0.0
 11
-3.428769796337882
 21
0.0
 31
0.0
1001
REVIT
1002
{
1070
     2
1000
-2001350
1002
}
  0
LINE
  5
2DC
330
29C
100
AcDbEntity
  8
5900A.05GT
100
AcDbLine
 10
-3.428769796337882
 20
0.0
 30
0.0
 11
-3.452979854162097
 21
0.0
 31
0.0
1001
REVIT
1002
{
1070
     2
1000
-2001350
1002
}
  0
LINE
  5
2DD
330
29C
100
AcDbEntity
  8
5900A.05GT
100
AcDbLine
 10
-3.452979854162097
 20
0.0
 30
0.0
 11
-3.505492160554575
 21
0.0
 31
0.0
1001
REVIT
1002
{
1070
     2
1000
-2001350
1002
}
  0
LINE
  5
2DE
330
29C
100
AcDbEntity
  8
5900A.05GT
100
AcDbLine
 10
-3.505492160554575
 20
0.0
 30
0.0
 11
-3.584288697029895
 21
0.0
 31
0.0
1001
REVIT
1002
{
1070
     2
1000
-2001350
1002
}
  0
LINE
  5
2DF
330
29C
100
AcDbEntity
  8
5900A.05GT
100
AcDbLine
 10
-3.584288697029895
 20
0.0
 30
0.0
 11
-3.686341356880919
 21
0.0
 31
0.0
1001
REVIT
1002
{
1070
     2
1000
-2001350
1002
}
  0
LINE
  5
2E0
330
29C
100
AcDbEntity
  8
5900A.05GT
100
AcDbLine
 10
-3.686341356880919
 20
0.0
 30
0.0
 11
-3.807728313621359
 21
0.0
 31
0.0
1001
REVIT
1002
{
1070
     2
1000
-2001350
1002
}
  0
LINE
  5
2E1
330
29C
100
AcDbEntity
  8
5900A.05GT
100
AcDbLine
 10
-3.807728313621359
 20
0.0
 30
0.0
 11
-3.943784734578272
 21
0.0
 31
0.0
1001
REVIT
1002
{
1070
     2
1000
-2001350
1002
}
  0
LINE
  5
2E2
330
29C
100
AcDbEntity
  8
5900A.05GT
100
AcDbLine
 10
-3.943784734578272
 20
0.0
 30
0.0
 11
-4.089282047795604
 21
0.0
 31
0.0
1001
REVIT
1002
{
1070
     2
1000
-2001350
1002
}
  0
LINE
  5
2E3
330
29C
100
AcDbEntity
  8
5900A.05GT
100
AcDbLine
 10
-4.089282047795604
 20
0.0
 30
0.0
 11
-4.238628873122245
 21
0.0
 31
0.0
1001
REVIT
1002
{
1070
     2
1000
-2001350
1002
}
  0
LINE
  5
2E4
330
29C
100
AcDbEntity
  8
5900A.05GT
100
AcDbLine
 10
-4.238628873122245
 20
0.0
 30
0.0
 11
-4.386085895815558
 21
0.0
 31
0.0
1001
REVIT
1002
{
1070
     2
1000
-2001350
1002
}
  0
LINE
  5
2E5
330
29C
100
AcDbEntity
  8
5900A.05GT
100
AcDbLine
 10
-4.386085895815558
 20
0.0
 30
0.0
 11
-4.525986425188289
 21
0.0
 31
0.0
1001
REVIT
1002
{
1070
     2
1000
-2001350
1002
}
  0
LINE
  5
2E6
330
29C
100
AcDbEntity
  8
5900A.05GT
100
AcDbLine
 10
-4.525986425188289
 20
0.0
 30
0.0
 11
-4.652954162353766
 21
0.0
 31
0.0
1001
REVIT
1002
{
1070
     2
1000
-2001350
1002
}
  0
LINE
  5
2E7
330
29C
100
AcDbEntity
  8
5900A.05GT
100
AcDbLine
 10
-4.652954162353766
 20
0.0
 30
0.0
 11
-4.762109808377045
 21
0.0
 31
0.0
1001
REVIT
1002
{
1070
     2
1000
-2001350
1002
}
  0
LINE
  5
2E8
330
29C
100
AcDbEntity
  8
5900A.05GT
100
AcDbLine
 10
-4.762109808377045
 20
0.0
 30
0.0
 11
-4.849258572996645
 21
0.0
 31
0.0
1001
REVIT
1002
{
1070
     2
1000
-2001350
1002
}
  0
LINE
  5
2E9
330
29C
100
AcDbEntity
  8
5900A.05GT
100
AcDbLine
 10
-4.849258572996645
 20
0.0
 30
0.0
 11
-4.911051378061824
 21
0.0
 31
0.0
1001
REVIT
1002
{
1070
     2
1000
-2001350
1002
}
  0
LINE
  5
2EA
330
29C
100
AcDbEntity
  8
5900A.05GT
100
AcDbLine
 10
-4.911051378061825
 20
0.0
 30
0.0
 11
-4.945113560727732
 21
0.0
 31
0.0
1001
REVIT
1002
{
1070
     2
1000
-2001350
1002
}
  0
LINE
  5
2EB
330
29C
100
AcDbEntity
  8
5900A.05GT
100
AcDbLine
 10
-4.945113560727732
 20
0.0
 30
0.0
 11
-4.950136130416809
 21
0.0
 31
0.0
1001
REVIT
1002
{
1070
     2
1000
-2001350
1002
}
  0
LINE
  5
2EC
330
29C
100
AcDbEntity
  8
5900A.05GT
100
AcDbLine
 10
4.950136130418289
 20
0.0
 30
0.0
 11
4.945113560729211
 21
0.0
 31
0.0
1001
REVIT
1002
{
1070
     2
1000
-2001350
1002
}
  0
LINE
  5
2ED
330
29C
100
AcDbEntity
  8
5900A.05GT
100
AcDbLine
 10
4.945113560729211
 20
0.0
 30
0.0
 11
4.911051378063304
 21
0.0
 31
0.0
1001
REVIT
1002
{
1070
     2
1000
-2001350
1002
}
  0
LINE
  5
2EE
330
29C
100
AcDbEntity
  8
5900A.05GT
100
AcDbLine
 10
4.911051378063302
 20
0.0
 30
0.0
 11
4.849258572998123
 21
0.0
 31
0.0
1001
REVIT
1002
{
1070
     2
1000
-2001350
1002
}
  0
LINE
  5
2EF
330
29C
100
AcDbEntity
  8
5900A.05GT
100
AcDbLine
 10
4.849258572998123
 20
0.0
 30
0.0
 11
4.762109808378522
 21
0.0
 31
0.0
1001
REVIT
1002
{
1070
     2
1000
-2001350
1002
}
  0
LINE
  5
2F0
330
29C
100
AcDbEntity
  8
5900A.05GT
100
AcDbLine
 10
4.762109808378522
 20
0.0
 30
0.0
 11
4.652954162355241
 21
0.0
 31
0.0
1001
REVIT
1002
{
1070
     2
1000
-2001350
1002
}
  0
LINE
  5
2F1
330
29C
100
AcDbEntity
  8
5900A.05GT
100
AcDbLine
 10
4.652954162355241
 20
0.0
 30
0.0
 11
4.525986425189764
 21
0.0
 31
0.0
1001
REVIT
1002
{
1070
     2
1000
-2001350
1002
}
  0
LINE
  5
2F2
330
29C
100
AcDbEntity
  8
5900A.05GT
100
AcDbLine
 10
4.525986425189764
 20
0.0
 30
0.0
 11
4.386085895817032
 21
0.0
 31
0.0
1001
REVIT
1002
{
1070
     2
1000
-2001350
1002
}
  0
LINE
  5
2F3
330
29C
100
AcDbEntity
  8
5900A.05GT
100
AcDbLine
 10
4.386085895817032
 20
0.0
 30
0.0
 11
4.23862887312372
 21
0.0
 31
0.0
1001
REVIT
1002
{
1070
     2
1000
-2001350
1002
}
  0
LINE
  5
2F4
330
29C
100
AcDbEntity
  8
5900A.05GT
100
AcDbLine
 10
4.23862887312372
 20
0.0
 30
0.0
 11
4.089282047797078
 21
0.0
 31
0.0
1001
REVIT
1002
{
1070
     2
1000
-2001350
1002
}
  0
LINE
  5
2F5
330
29C
100
AcDbEntity
  8
5900A.05GT
100
AcDbLine
 10
4.089282047797078
 20
0.0
 30
0.0
 11
3.943784734579747
 21
0.0
 31
0.0
1001
REVIT
1002
{
1070
     2
1000
-2001350
1002
}
  0
LINE
  5
2F6
330
29C
100
AcDbEntity
  8
5900A.05GT
100
AcDbLine
 10
3.943784734579747
 20
0.0
 30
0.0
 11
3.807728313622834
 21
0.0
 31
0.0
1001
REVIT
1002
{
1070
     2
1000
-2001350
1002
}
  0
LINE
  5
2F7
330
29C
100
AcDbEntity
  8
5900A.05GT
100
AcDbLine
 10
3.807728313622834
 20
0.0
 30
0.0
 11
3.686341356882395
 21
0.0
 31
0.0
1001
REVIT
1002
{
1070
     2
1000
-2001350
1002
}
  0
LINE
  5
2F8
330
29C
100
AcDbEntity
  8
5900A.05GT
100
AcDbLine
 10
3.686341356882395
 20
0.0
 30
0.0
 11
3.584288697031372
 21
0.0
 31
0.0
1001
REVIT
1002
{
1070
     2
1000
-2001350
1002
}
  0
LINE
  5
2F9
330
29C
100
AcDbEntity
  8
5900A.05GT
100
AcDbLine
 10
3.584288697031372
 20
0.0
 30
0.0
 11
3.505492160556053
 21
0.0
 31
0.0
1001
REVIT
1002
{
1070
     2
1000
-2001350
1002
}
  0
LINE
  5
2FA
330
29C
100
AcDbEntity
  8
5900A.05GT
100
AcDbLine
 10
3.505492160556053
 20
0.0
 30
0.0
 11
3.452979854163574
 21
0.0
 31
0.0
1001
REVIT
1002
{
1070
     2
1000
-2001350
1002
}
  0
LINE
  5
2FB
330
29C
100
AcDbEntity
  8
5900A.05GT
100
AcDbLine
 10
3.452979854163574
 20
0.0
 30
0.0
 11
3.428769796339362
 21
0.0
 31
0.0
1001
REVIT
1002
{
1070
     2
1000
-2001350
1002
}
  0
LINE
  5
2FC
330
29C
100
AcDbEntity
  8
5900A.05GT
100
AcDbLine
 10
3.428769796339362
 20
0.0
 30
0.0
 11
3.427202537004299
 21
0.0
 31
0.0
1001
REVIT
1002
{
1070
     2
1000
-2001350
1002
}
  0
ENDBLK
  5
29E
330
29C
100
AcDbEntity
  8
0
100
AcDbBlockEnd
  0
BLOCK
  5
2FF
330
2FE
100
AcDbEntity
  8
0
100
AcDbBlockBegin
  2
AMSTD_Aquawash_5900A.05GT_Left View
 70
     0
 10
0.0
 20
0.0
 30
0.0
  3
AMSTD_Aquawash_5900A.05GT_Left View
  1

  0
LINE
  5
301
330
2FE
100
AcDbEntity
  8
5900A.05GT
100
AcDbLine
 10
19.68569958855594
 20
0.1875000000002965
 30
0.0
 11
19.68569958855594
 21
1.67649265055734
 31
0.0
1001
REVIT
1002
{
1070
     2
1000
-2001350
1002
}
  0
LINE
  5
302
330
2FE
100
AcDbEntity
  8
5900A.05GT
100
AcDbLine
 10
3.107016087813434
 20
0.1879257383183723
 30
0.0
 11
3.295916649979311
 21
0.1623936351300487
 31
0.0
1001
REVIT
1002
{
1070
     2
1000
-2001350
1002
}
  0
LINE
  5
303
330
2FE
100
AcDbEntity
  8
5900A.05GT
100
AcDbLine
 10
3.29591664997929
 20
0.9929250794895953
 30
0.0
 11
3.107016087813434
 21
0.967392976301274
 31
0.0
1001
REVIT
1002
{
1070
     2
1000
-2001350
1002
}
  0
LINE
  5
304
330
2FE
100
AcDbEntity
  8
5900A.05GT
100
AcDbLine
 10
4.406191906606167
 20
0.3786207262130885
 30
0.0
 11
4.406191906606167
 21
0.7100010709508374
 31
0.0
1001
REVIT
1002
{
1070
     2
1000
-2001350
1002
}
  0
LINE
  5
305
330
2FE
100
AcDbEntity
  8
5900A.05GT
100
AcDbLine
 10
1.073815943287435
 20
0.1578869655971776
 30
0.0
 11
1.28236657512393
 21
0.0939841741692755
 31
0.0
1001
REVIT
1002
{
1070
     2
1000
-2001350
1002
}
  0
LINE
  5
306
330
2FE
100
AcDbEntity
  8
5900A.05GT
100
AcDbLine
 10
1.28236657512393
 20
1.061334540450371
 30
0.0
 11
1.073815943287435
 21
0.9974317490224688
 31
0.0
1001
REVIT
1002
{
1070
     2
1000
-2001350
1002
}
  0
LINE
  5
307
330
2FE
100
AcDbEntity
  8
5900A.05GT
100
AcDbLine
 10
8.100545685483545
 20
0.1875000000003031
 30
0.0
 11
8.100545685483545
 21
0.0000000000000207
 31
0.0
1001
REVIT
1002
{
1070
     2
1000
-2001350
1002
}
  0
LINE
  5
308
330
2FE
100
AcDbEntity
  8
5900A.05GT
100
AcDbLine
 10
9.100545685483545
 20
0.0000000000000207
 30
0.0
 11
9.100545685483545
 21
0.1875000000003201
 31
0.0
1001
REVIT
1002
{
1070
     2
1000
-2001350
1002
}
  0
LINE
  5
309
330
2FE
100
AcDbEntity
  8
5900A.05GT
100
AcDbLine
 10
14.93861319650985
 20
0.1875000000002868
 30
0.0
 11
14.93861319650985
 21
0.0000000000000207
 31
0.0
1001
REVIT
1002
{
1070
     2
1000
-2001350
1002
}
  0
LINE
  5
30A
330
2FE
100
AcDbEntity
  8
5900A.05GT
100
AcDbLine
 10
16.13084621445957
 20
0.0000000000000207
 30
0.0
 11
16.13084621445957
 21
0.1875000000003015
 31
0.0
1001
REVIT
1002
{
1070
     2
1000
-2001350
1002
}
  0
SPLINE
  5
30B
330
2FE
100
AcDbEntity
  8
5900A.05GT
100
AcDbSpline
210
0.0
220
0.0
230
1.0
 70
     8
 71
     3
 72
    16
 73
    12
 74
     0
 42
0.000000001
 43
0.0000000001
 40
0.1603986582274932
 40
0.1603986582274932
 40
0.1603986582274932
 40
0.1603986582274932
 40
0.1666666666666666
 40
0.2222222222222222
 40
0.2777777777777778
 40
0.3333333333333333
 40
0.3888888888888888
 40
0.4444444444444445
 40
0.5138888888888889
 40
0.5486111111111111
 40
0.5555555555555556
 40
0.5555555555555556
 40
0.5555555555555556
 40
0.5555555555555556
 10
3.684176247902385
 20
0.3756077520388541
 30
0.0
 10
3.68293095922764
 20
0.373191980362953
 30
0.0
 10
3.670442332503228
 20
0.349492769143819
 30
0.0
 10
3.643000350147282
 20
0.3071011746842049
 30
0.0
 10
3.594425028860676
 20
0.2555896934458331
 30
0.0
 10
3.538802388354071
 20
0.2132752221151642
 30
0.0
 10
3.476855252083687
 20
0.1826658170404774
 30
0.0
 10
3.405833165424041
 20
0.161688420577734
 30
0.0
 10
3.340711200282086
 20
0.1574815769443079
 30
0.0
 10
3.295819698361853
 20
0.1620792367328588
 30
0.0
 10
3.279351958000646
 20
0.1650191125544243
 30
0.0
 10
3.276615978247761
 20
0.1655427386208806
 30
0.0
1001
REVIT
1002
{
1070
     2
1000
-2001350
1002
}
  0
SPLINE
  5
30C
330
2FE
100
AcDbEntity
  8
5900A.05GT
100
AcDbSpline
210
0.0
220
0.0
230
1.0
 70
     8
 71
     3
 72
    15
 73
    11
 74
     0
 42
0.000000001
 43
0.0000000001
 40
0.4444444444444445
 40
0.4444444444444445
 40
0.4444444444444445
 40
0.4444444444444445
 40
0.5138888888888889
 40
0.5486111111111111
 40
0.5833333333333333
 40
0.6527777777777777
 40
0.7222222222222223
 40
0.7916666666666668
 40
0.861111111111111
 40
0.897295737483798
 40
0.897295737483798
 40
0.897295737483798
 40
0.897295737483798
 10
3.276682309657118
 20
0.9897895703640433
 30
0.0
 10
3.304315101868851
 20
0.9950833113720957
 30
0.0
 10
3.346716815075993
 20
0.9978366530878448
 30
0.0
 10
3.402976735382083
 20
0.9921033704820521
 30
0.0
 10
3.457329445522375
 20
0.9795763631290885
 30
0.0
 10
3.524795759840202
 20
0.9516408459343928
 30
0.0
 10
3.595295191775122
 20
0.9006699468450468
 30
0.0
 10
3.653526327003376
 20
0.8348564838205836
 30
0.0
 10
3.694300228841477
 20
0.7687130882482835
 30
0.0
 10
3.705639552141434
 20
0.7245192510552532
 30
0.0
 10
3.70872449439939
 20
0.7091269627252253
 30
0.0
1001
REVIT
1002
{
1070
     2
1000
-2001350
1002
}
  0
SPLINE
  5
30D
330
2FE
100
AcDbEntity
  8
5900A.05GT
100
AcDbSpline
210
0.0
220
0.0
230
1.0
 70
     8
 71
     3
 72
    19
 73
    15
 74
     0
 42
0.000000001
 43
0.0000000001
 40
0.0
 40
0.0
 40
0.0
 40
0.0
 40
0.0555555555555556
 40
0.1111111111111111
 40
0.1666666666666666
 40
0.2222222222222222
 40
0.2777777777777778
 40
0.3333333333333333
 40
0.3888888888888888
 40
0.4444444444444445
 40
0.5138888888888889
 40
0.5486111111111111
 40
0.5833333333333333
 40
0.5887026734093663
 40
0.5887026734093663
 40
0.5887026734093663
 40
0.5887026734093663
 10
1.823402533927541
 20
0.5776593573098229
 30
0.0
 10
1.823135546709849
 20
0.5474053000951961
 30
0.0
 10
1.818391697297641
 20
0.4884972314949597
 30
0.0
 10
1.799268847196607
 20
0.4060531151097963
 30
0.0
 10
1.766338636733927
 20
0.3261734381554074
 30
0.0
 10
1.722814158407977
 20
0.254256121035501
 30
0.0
 10
1.668644928278055
 20
0.1927582859371168
 30
0.0
 10
1.60670696660685
 20
0.1422604272051554
 30
0.0
 10
1.537871781551345
 20
0.1057500860292142
 30
0.0
 10
1.459078388827542
 20
0.0807435106180857
 30
0.0
 10
1.386936358327098
 20
0.07573844845805
 30
0.0
 10
1.324865812291307
 20
0.0825952735852856
 30
0.0
 10
1.292704103280605
 20
0.0906402735519758
 30
0.0
 10
1.275552180201245
 20
0.096244888717189
 30
0.0
 10
1.273257373097493
 20
0.0970185377543818
 30
0.0
1001
REVIT
1002
{
1070
     2
1000
-2001350
1002
}
  0
SPLINE
  5
30E
330
2FE
100
AcDbEntity
  8
5900A.05GT
100
AcDbSpline
210
0.0
220
0.0
230
1.0
 70
     8
 71
     3
 72
    16
 73
    12
 74
     0
 42
0.000000001
 43
0.0000000001
 40
0.4112973265906368
 40
0.4112973265906368
 40
0.4112973265906368
 40
0.4112973265906368
 40
0.4444444444444445
 40
0.5138888888888889
 40
0.5486111111111111
 40
0.5833333333333333
 40
0.6527777777777777
 40
0.7222222222222223
 40
0.7916666666666668
 40
0.861111111111111
 40
1.0
 40
1.0
 40
1.0
 40
1.0
 10
1.272970016354044
 20
1.058206689394698
 30
0.0
 10
1.287153249096029
 20
1.063011685307992
 30
0.0
 10
1.331737032164717
 20
1.075241075313713
 30
0.0
 10
1.393583641016455
 20
1.079583964784887
 30
0.0
 10
1.455927086926969
 20
1.072754751639128
 30
0.0
 10
1.516194635057793
 20
1.057817248153652
 30
0.0
 10
1.591175758079415
 20
1.024536541418509
 30
0.0
 10
1.669388146340352
 20
0.963598995509956
 30
0.0
 10
1.735372494686231
 20
0.8854300722704181
 30
0.0
 10
1.802529194204367
 20
0.7579790039580901
 30
0.0
 10
1.822735065883321
 20
0.6532945003463908
 30
0.0
 10
1.823402533927541
 20
0.5776593573098229
 30
0.0
1001
REVIT
1002
{
1070
     2
1000
-2001350
1002
}
  0
LINE
  5
30F
330
2FE
100
AcDbEntity
  8
5900A.05GT
100
AcDbLine
 10
0.5197281559572318
 20
2.365327282717949
 30
0.0
 11
0.4341411961637505
 21
2.181785455135458
 31
0.0
1001
REVIT
1002
{
1070
     2
1000
-2001350
1002
}
  0
LINE
  5
310
330
2FE
100
AcDbEntity
  8
5900A.05GT
100
AcDbLine
 10
0.4341411961637505
 20
2.181785455135458
 30
0.0
 11
0.3490043955210496
 21
1.999208996967131
 31
0.0
1001
REVIT
1002
{
1070
     2
1000
-2001350
1002
}
  0
LINE
  5
311
330
2FE
100
AcDbEntity
  8
5900A.05GT
100
AcDbLine
 10
4.036152108992801
 20
2.437500000000378
 30
0.0
 11
0.6330166293368933
 21
2.437500000000378
 31
0.0
1001
REVIT
1002
{
1070
     2
1000
-2001350
1002
}
  0
SPLINE
  5
312
330
2FE
100
AcDbEntity
  8
5900A.05GT
100
AcDbSpline
210
0.0
220
0.0
230
1.0
 70
     8
 71
     3
 72
     9
 73
     5
 74
     0
 42
0.000000001
 43
0.0000000001
 40
-1.0
 40
-1.0
 40
-1.0
 40
-1.0
 40
-0.5
 40
0.0
 40
0.0
 40
0.0
 40
0.0
 10
4.831356445118181
 20
2.373764770646216
 30
0.0
 10
4.698650780617015
 20
2.395174893155319
 30
0.0
 10
4.432817454760488
 20
2.427059697660766
 30
0.0
 10
4.167932279619137
 20
2.437500000000381
 30
0.0
 10
4.036152108992716
 20
2.437500000000378
 30
0.0
1001
REVIT
1002
{
1070
     2
1000
-2001350
1002
}
  0
SPLINE
  5
313
330
2FE
100
AcDbEntity
  8
5900A.05GT
100
AcDbSpline
210
0.0
220
0.0
230
1.0
 70
     8
 71
     3
 72
    10
 73
     6
 74
     0
 42
0.000000001
 43
0.0000000001
 40
-0.9985989784279647
 40
-0.9985989784279647
 40
-0.9985989784279647
 40
-0.9985989784279647
 40
-0.6666666666666666
 40
-0.3333333333333333
 40
0.0
 40
0.0
 40
0.0
 40
0.0
 10
8.863387450294943
 20
1.876296169669242
 30
0.0
 10
8.407524096129392
 20
1.91539532967511
 30
0.0
 10
7.499604780073894
 20
2.00478805003489
 30
0.0
 10
6.147972951557754
 20
2.172152066302448
 30
0.0
 10
5.267318831273264
 20
2.303428601259343
 30
0.0
 10
4.831356445118217
 20
2.373764770646203
 30
0.0
1001
REVIT
1002
{
1070
     2
1000
-2001350
1002
}
  0
SPLINE
  5
314
330
2FE
100
AcDbEntity
  8
5900A.05GT
100
AcDbSpline
210
0.0
220
0.0
230
1.0
 70
     8
 71
     3
 72
    11
 73
     7
 74
     0
 42
0.000000001
 43
0.0000000001
 40
-1.0
 40
-1.0
 40
-1.0
 40
-1.0
 40
-0.75
 40
-0.5
 40
-0.25
 40
0.0
 40
0.0
 40
0.0
 40
0.0
 10
13.53100056614707
 20
1.676492650557437
 30
0.0
 10
13.15549232433169
 20
1.67649265055744
 30
0.0
 10
12.39675220807785
 20
1.684222458551588
 30
0.0
 10
11.23279061422721
 20
1.72064591497638
 30
0.0
 10
10.05312586690089
 20
1.78304085461344
 30
0.0
 10
9.264546764656124
 20
1.84193134046329
 30
0.0
 10
8.869159934228079
 20
1.875801373990131
 30
0.0
1001
REVIT
1002
{
1070
     2
1000
-2001350
1002
}
  0
LINE
  5
315
330
2FE
100
AcDbEntity
  8
5900A.05GT
100
AcDbLine
 10
17.4457394234166
 20
1.676492650557429
 30
0.0
 11
13.53100056614736
 21
1.676492650557429
 31
0.0
1001
REVIT
1002
{
1070
     2
1000
-2001350
1002
}
  0
LINE
  5
316
330
2FE
100
AcDbEntity
  8
5900A.05GT
100
AcDbLine
 10
19.68569958855591
 20
1.676492650557338
 30
0.0
 11
17.44573942341665
 21
1.676492650557338
 31
0.0
1001
REVIT
1002
{
1070
     2
1000
-2001350
1002
}
  0
LINE
  5
317
330
2FE
100
AcDbEntity
  8
5900A.05GT
100
AcDbLine
 10
17.44573942341662
 20
0.1875000000002962
 30
0.0
 11
19.68569958855591
 21
0.1875000000002962
 31
0.0
1001
REVIT
1002
{
1070
     2
1000
-2001350
1002
}
  0
LINE
  5
318
330
2FE
100
AcDbEntity
  8
5900A.05GT
100
AcDbLine
 10
8.869159934228225
 20
0.1875000000003266
 30
0.0
 11
17.44573942341653
 21
0.1875000000003266
 31
0.0
1001
REVIT
1002
{
1070
     2
1000
-2001350
1002
}
  0
LINE
  5
319
330
2FE
100
AcDbEntity
  8
5900A.05GT
100
AcDbLine
 10
7.452192217037609
 20
0.1875000000003261
 30
0.0
 11
8.869159934228321
 21
0.1875000000003261
 31
0.0
1001
REVIT
1002
{
1070
     2
1000
-2001350
1002
}
  0
SPLINE
  5
31A
330
2FE
100
AcDbEntity
  8
5900A.05GT
100
AcDbSpline
210
0.0
220
0.0
230
1.0
 70
     8
 71
     3
 72
    10
 73
     6
 74
     0
 42
0.000000001
 43
0.0000000001
 40
-1.0
 40
-1.0
 40
-1.0
 40
-1.0
 40
-0.6666666666666666
 40
-0.3333333333333333
 40
0.0
 40
0.0
 40
0.0
 40
0.0
 10
6.260969778771681
 20
0.5572182011229124
 30
0.0
 10
6.376372131448015
 20
0.4779475985335792
 30
0.0
 10
6.623441571357837
 20
0.3422606448174196
 30
0.0
 10
7.028412557391312
 20
0.2161197259269081
 30
0.0
 10
7.310765587604329
 20
0.1875000000003255
 30
0.0
 10
7.452192217037513
 20
0.1875000000003248
 30
0.0
1001
REVIT
1002
{
1070
     2
1000
-2001350
1002
}
  0
SPLINE
  5
31B
330
2FE
100
AcDbEntity
  8
5900A.05GT
100
AcDbSpline
210
0.0
220
0.0
230
1.0
 70
     8
 71
     3
 72
    10
 73
     6
 74
     0
 42
0.000000001
 43
0.0000000001
 40
-1.0
 40
-1.0
 40
-1.0
 40
-1.0
 40
-0.6666666666666666
 40
-0.3333333333333333
 40
0.0
 40
0.0
 40
0.0
 40
0.0
 10
4.30414918085983
 20
1.270065962956843
 30
0.0
 10
4.531799652089624
 20
1.247957987467546
 30
0.0
 10
4.986955674942958
 20
1.165896119567788
 30
0.0
 10
5.650814412474105
 20
0.9266711666432851
 30
0.0
 10
6.0644829655205
 20
0.692186230162694
 30
0.0
 10
6.260969778771681
 20
0.5572182011229119
 30
0.0
1001
REVIT
1002
{
1070
     2
1000
-2001350
1002
}
  0
LINE
  5
31C
330
2FE
100
AcDbEntity
  8
5900A.05GT
100
AcDbLine
 10
0.5536085092897452
 20
1.270065962956809
 30
0.0
 11
4.304149180859923
 21
1.270065962956809
 31
0.0
1001
REVIT
1002
{
1070
     2
1000
-2001350
1002
}
  0
LINE
  5
31D
330
2FE
100
AcDbEntity
  8
5900A.05GT
100
AcDbLine
 10
4.347867586382278
 20
1.196756631096563
 30
0.0
 11
0.5536085092897452
 21
1.196756631096563
 31
0.0
1001
REVIT
1002
{
1070
     2
1000
-2001350
1002
}
  0
SPLINE
  5
31E
330
2FE
100
AcDbEntity
  8
5900A.05GT
100
AcDbSpline
210
0.0
220
0.0
230
1.0
 70
     8
 71
     3
 72
    10
 73
     6
 74
     0
 42
0.000000001
 43
0.0000000001
 40
-1.0
 40
-1.0
 40
-1.0
 40
-1.0
 40
-0.7
 40
-0.4
 40
0.0
 40
0.0
 40
0.0
 40
0.0
 10
6.481934959552873
 20
0.1485000250058734
 30
0.0
 10
6.328419961673631
 20
0.3472733056421254
 30
0.0
 10
5.966793743474639
 20
0.6999155603921984
 30
0.0
 10
5.234006865752199
 20
1.096074921319738
 30
0.0
 10
4.667545604010946
 20
1.196756631096577
 30
0.0
 10
4.347867586382186
 20
1.196756631096572
 30
0.0
1001
REVIT
1002
{
1070
     2
1000
-2001350
1002
}
  0
LINE
  5
31F
330
2FE
100
AcDbEntity
  8
5900A.05GT
100
AcDbLine
 10
0.0
 20
0.0
 30
0.0
 11
6.408991558527311
 21
0.0
 31
0.0
1001
REVIT
1002
{
1070
     2
1000
-2001350
1002
}
  0
LINE
  5
320
330
2FE
100
AcDbEntity
  8
5900A.05GT
100
AcDbLine
 10
0.1453289259397295
 20
1.661117224596103
 30
0.0
 11
0.0724862339524322
 21
0.82852144530738
 31
0.0
1001
REVIT
1002
{
1070
     2
1000
-2001350
1002
}
  0
LINE
  5
321
330
2FE
100
AcDbEntity
  8
5900A.05GT
100
AcDbLine
 10
0.0724862339524322
 20
0.82852144530738
 30
0.0
 11
-0.0000000000000782
 21
-0.0000000000000218
 31
0.0
1001
REVIT
1002
{
1070
     2
1000
-2001350
1002
}
  0
LINE
  5
322
330
2FE
100
AcDbEntity
  8
5900A.05GT
100
AcDbLine
 10
0.553608509289667
 20
1.196756631096531
 30
0.0
 11
0.553608509289667
 21
1.270065962956809
 31
0.0
1001
REVIT
1002
{
1070
     2
1000
-2001350
1002
}
  0
SPLINE
  5
323
330
2FE
100
AcDbEntity
  8
5900A.05GT
100
AcDbSpline
210
0.0
220
0.0
230
1.0
 70
     8
 71
     3
 72
    15
 73
    11
 74
     0
 42
0.000000001
 43
0.0000000001
 40
-1.0
 40
-1.0
 40
-1.0
 40
-1.0
 40
-0.75
 40
-0.625
 40
-0.5625
 40
-0.5
 40
-0.4375
 40
-0.375
 40
-0.25
 40
0.0
 40
0.0
 40
0.0
 40
0.0
 10
0.3490043955210496
 20
1.999208996967131
 30
0.0
 10
0.3228496365086215
 20
1.982309279003973
 30
0.0
 10
0.2853272403846461
 20
1.95224761598362
 30
0.0
 10
0.2468634742233746
 20
1.909316565355592
 30
0.0
 10
0.2266987439722783
 20
1.882620381540483
 30
0.0
 10
0.212548095570483
 20
1.86151998332594
 30
0.0
 10
0.199439579616083
 20
1.83934178488891
 30
0.0
 10
0.1834953218061912
 20
1.808419742383267
 30
0.0
 10
0.1600407434882669
 20
1.75118075739683
 30
0.0
 10
0.1485375293331828
 20
1.697791729202139
 30
0.0
 10
0.1453289259397295
 20
1.66111722459614
 30
0.0
1001
REVIT
1002
{
1070
     2
1000
-2001350
1002
}
  0
SPLINE
  5
324
330
2FE
100
AcDbEntity
  8
5900A.05GT
100
AcDbSpline
210
0.0
220
0.0
230
1.0
 70
     8
 71
     3
 72
    13
 73
     9
 74
     0
 42
0.000000001
 43
0.0000000001
 40
-1.0
 40
-1.0
 40
-1.0
 40
-1.0
 40
-0.861111111111111
 40
-0.7222222222222223
 40
-0.5833333333333333
 40
-0.4444444444444445
 40
-0.2222222222222222
 40
0.0
 40
0.0
 40
0.0
 40
0.0
 10
6.408991558527219
 20
0.0000000000000499
 30
0.0
 10
6.418408089400159
 20
0.00000000000005
 30
0.0
 10
6.437261454482161
 20
0.0029096846071457
 30
0.0
 10
6.462965063164233
 20
0.0156490263397239
 30
0.0
 10
6.483684580134834
 20
0.0356787833520813
 30
0.0
 10
6.500136180462881
 20
0.0662804289255392
 30
0.0
 10
6.503808482221572
 20
0.1075669499477445
 30
0.0
 10
6.491241127056241
 20
0.1364502743603382
 30
0.0
 10
6.481934959552884
 20
0.1485000250058592
 30
0.0
1001
REVIT
1002
{
1070
     2
1000
-2001350
1002
}
  0
SPLINE
  5
325
330
2FE
100
AcDbEntity
  8
5900A.05GT
100
AcDbSpline
210
0.0
220
0.0
230
1.0
 70
     8
 71
     3
 72
    14
 73
    10
 74
     0
 42
0.000000001
 43
0.0000000001
 40
-1.0
 40
-1.0
 40
-1.0
 40
-1.0
 40
-0.8
 40
-0.6
 40
-0.5
 40
-0.4
 40
-0.3
 40
-0.2
 40
0.0
 40
0.0
 40
0.0
 40
0.0
 10
0.6330166293368152
 20
2.437500000000361
 30
0.0
 10
0.6241227220797115
 20
2.437500000000361
 30
0.0
 10
0.6061920407842507
 20
2.435584113308544
 30
0.0
 10
0.5846230510069859
 20
2.428392811630679
 30
0.0
 10
0.568251825462113
 20
2.419718711020053
 30
0.0
 10
0.5565832885769098
 20
2.411751585233904
 30
0.0
 10
0.5456550715437487
 20
2.402298914306171
 30
0.0
 10
0.5323700075176064
 20
2.387785073289644
 30
0.0
 10
0.5241310582407693
 20
2.374769337135326
 30
0.0
 10
0.5197281559572318
 20
2.365327282717946
 30
0.0
1001
REVIT
1002
{
1070
     2
1000
-2001350
1002
}
  0
ELLIPSE
  5
326
330
2FE
100
AcDbEntity
  8
5900A.05GT
100
AcDbEllipse
 10
3.151650865527962
 20
0.5776593573098229
 30
0.0
 11
0.0000000000000065
 21
0.3927384892238568
 31
0.0
210
0.0
220
0.0
230
1.0
 40
0.9205048534524404
 41
1.570796326794908
 42
4.712388980384692
1001
REVIT
1002
{
1070
     2
1000
-2001350
1002
}
  0
SPLINE
  5
327
330
2FE
100
AcDbEntity
  8
5900A.05GT
100
AcDbSpline
210
0.0
220
0.0
230
1.0
 70
     8
 71
     3
 72
    10
 73
     6
 74
     0
 42
0.000000001
 43
0.0000000001
 40
-1.0
 40
-1.0
 40
-1.0
 40
-1.0
 40
-0.6666666666666666
 40
-0.3333333333333333
 40
0.0
 40
0.0
 40
0.0
 40
0.0
 10
3.469714559434692
 20
0.3786207262130881
 30
0.0
 10
3.480234174912865
 20
0.3988572617225452
 30
0.0
 10
3.497827061396968
 20
0.4405972117316842
 30
0.0
 10
3.514170102822689
 20
0.5081661028545597
 30
0.0
 10
3.51778244800699
 20
0.5542013493989371
 30
0.0
 10
3.517816657510302
 20
0.5776593573098229
 30
0.0
1001
REVIT
1002
{
1070
     2
1000
-2001350
1002
}
  0
ELLIPSE
  5
328
330
2FE
100
AcDbEntity
  8
5900A.05GT
100
AcDbEllipse
 10
3.151650865527962
 20
0.5776593573098229
 30
0.0
 11
0.0000000000000029
 21
0.3927384892238563
 31
0.0
210
0.0
220
0.0
230
1.0
 40
0.9205048534524404
 41
4.712388980384689
 42
7.853981633974486
1001
REVIT
1002
{
1070
     2
1000
-2001350
1002
}
  0
SPLINE
  5
329
330
2FE
100
AcDbEntity
  8
5900A.05GT
100
AcDbSpline
210
0.0
220
0.0
230
1.0
 70
     8
 71
     3
 72
     9
 73
     5
 74
     0
 42
0.000000001
 43
0.0000000001
 40
-1.0
 40
-1.0
 40
-1.0
 40
-1.0
 40
-0.5
 40
0.0
 40
0.0
 40
0.0
 40
0.0
 10
3.517816657510302
 20
0.5776593573098229
 30
0.0
 10
3.517782992838704
 20
0.6004251654371226
 30
0.0
 10
3.514348379190032
 20
0.6452479258379245
 30
0.0
 10
3.50417919693038
 20
0.6886529745311317
 30
0.0
 10
3.497410963647816
 20
0.7100010709508365
 30
0.0
1001
REVIT
1002
{
1070
     2
1000
-2001350
1002
}
  0
LINE
  5
32A
330
2FE
100
AcDbEntity
  8
5900A.05GT
100
AcDbLine
 10
4.217837437651908
 20
0.7100010709508365
 30
0.0
 11
4.406014372259434
 21
0.7100010709508365
 31
0.0
1001
REVIT
1002
{
1070
     2
1000
-2001350
1002
}
  0
LINE
  5
32B
330
2FE
100
AcDbEntity
  8
5900A.05GT
100
AcDbLine
 10
3.497410963647816
 20
0.7100010709508365
 30
0.0
 11
4.217837437651908
 21
0.7100010709508365
 31
0.0
1001
REVIT
1002
{
1070
     2
1000
-2001350
1002
}
  0
LINE
  5
32C
330
2FE
100
AcDbEntity
  8
5900A.05GT
100
AcDbLine
 10
4.406014372259434
 20
0.3786207262130881
 30
0.0
 11
4.217837437651908
 21
0.3786207262130881
 31
0.0
1001
REVIT
1002
{
1070
     2
1000
-2001350
1002
}
  0
LINE
  5
32D
330
2FE
100
AcDbEntity
  8
5900A.05GT
100
AcDbLine
 10
4.217837437651908
 20
0.3786207262130881
 30
0.0
 11
3.469714559434692
 21
0.3786207262130881
 31
0.0
1001
REVIT
1002
{
1070
     2
1000
-2001350
1002
}
  0
ELLIPSE
  5
32E
330
2FE
100
AcDbEntity
  8
5900A.05GT
100
AcDbEllipse
 10
1.167811163956599
 20
0.5776593573098229
 30
0.0
 11
0.0000000000000025
 21
0.4339342198096749
 31
0.0
210
0.0
220
0.0
230
1.0
 40
0.8548536890124511
 41
1.570796326794898
 42
4.712388980384681
1001
REVIT
1002
{
1070
     2
1000
-2001350
1002
}
  0
ELLIPSE
  5
32F
330
2FE
100
AcDbEntity
  8
5900A.05GT
100
AcDbEllipse
 10
1.167811163956599
 20
0.5776593573098229
 30
0.0
 11
0.0000000000000024
 21
0.4339342198096743
 31
0.0
210
0.0
220
0.0
230
1.0
 40
0.8548536890124516
 41
4.712388980384687
 42
7.853981633974484
1001
REVIT
1002
{
1070
     2
1000
-2001350
1002
}
  0
LINE
  5
330
330
2FE
100
AcDbEntity
  8
5900A.05GT
100
AcDbLine
 10
9.100545685483531
 20
0.0000000000000207
 30
0.0
 11
9.090938325685147
 21
0.0000000000000207
 31
0.0
1001
REVIT
1002
{
1070
     2
1000
-2001350
1002
}
  0
LINE
  5
331
330
2FE
100
AcDbEntity
  8
5900A.05GT
100
AcDbLine
 10
9.090938325685147
 20
0.0000000000000207
 30
0.0
 11
9.062485451739178
 21
0.0000000000000207
 31
0.0
1001
REVIT
1002
{
1070
     2
1000
-2001350
1002
}
  0
LINE
  5
332
330
2FE
100
AcDbEntity
  8
5900A.05GT
100
AcDbLine
 10
9.062485451739178
 20
0.0000000000000207
 30
0.0
 11
9.016280491634805
 21
0.0000000000000207
 31
0.0
1001
REVIT
1002
{
1070
     2
1000
-2001350
1002
}
  0
LINE
  5
333
330
2FE
100
AcDbEntity
  8
5900A.05GT
100
AcDbLine
 10
9.016280491634805
 20
0.0000000000000207
 30
0.0
 11
8.954099076076808
 21
0.0000000000000207
 31
0.0
1001
REVIT
1002
{
1070
     2
1000
-2001350
1002
}
  0
LINE
  5
334
330
2FE
100
AcDbEntity
  8
5900A.05GT
100
AcDbLine
 10
8.954099076076808
 20
0.0000000000000207
 30
0.0
 11
8.878330801993335
 21
0.0000000000000207
 31
0.0
1001
REVIT
1002
{
1070
     2
1000
-2001350
1002
}
  0
LINE
  5
335
330
2FE
100
AcDbEntity
  8
5900A.05GT
100
AcDbLine
 10
8.878330801993335
 20
0.0000000000000207
 30
0.0
 11
8.791887401666077
 21
0.0000000000000207
 31
0.0
1001
REVIT
1002
{
1070
     2
1000
-2001350
1002
}
  0
LINE
  5
336
330
2FE
100
AcDbEntity
  8
5900A.05GT
100
AcDbLine
 10
8.791887401666077
 20
0.0000000000000207
 30
0.0
 11
8.698090846491595
 21
0.0000000000000207
 31
0.0
1001
REVIT
1002
{
1070
     2
1000
-2001350
1002
}
  0
LINE
  5
337
330
2FE
100
AcDbEntity
  8
5900A.05GT
100
AcDbLine
 10
8.698090846491595
 20
0.0000000000000207
 30
0.0
 11
8.600545685483531
 21
0.0000000000000207
 31
0.0
1001
REVIT
1002
{
1070
     2
1000
-2001350
1002
}
  0
LINE
  5
338
330
2FE
100
AcDbEntity
  8
5900A.05GT
100
AcDbLine
 10
8.600545685483531
 20
0.0000000000000207
 30
0.0
 11
8.503000524475467
 21
0.0000000000000207
 31
0.0
1001
REVIT
1002
{
1070
     2
1000
-2001350
1002
}
  0
LINE
  5
339
330
2FE
100
AcDbEntity
  8
5900A.05GT
100
AcDbLine
 10
8.503000524475467
 20
0.0000000000000207
 30
0.0
 11
8.409203969300982
 21
0.0000000000000207
 31
0.0
1001
REVIT
1002
{
1070
     2
1000
-2001350
1002
}
  0
LINE
  5
33A
330
2FE
100
AcDbEntity
  8
5900A.05GT
100
AcDbLine
 10
8.409203969300982
 20
0.0000000000000207
 30
0.0
 11
8.322760568973727
 21
0.0000000000000207
 31
0.0
1001
REVIT
1002
{
1070
     2
1000
-2001350
1002
}
  0
LINE
  5
33B
330
2FE
100
AcDbEntity
  8
5900A.05GT
100
AcDbLine
 10
8.322760568973727
 20
0.0000000000000207
 30
0.0
 11
8.246992294890254
 21
0.0000000000000207
 31
0.0
1001
REVIT
1002
{
1070
     2
1000
-2001350
1002
}
  0
LINE
  5
33C
330
2FE
100
AcDbEntity
  8
5900A.05GT
100
AcDbLine
 10
8.246992294890254
 20
0.0000000000000207
 30
0.0
 11
8.18481087933226
 21
0.0000000000000207
 31
0.0
1001
REVIT
1002
{
1070
     2
1000
-2001350
1002
}
  0
LINE
  5
33D
330
2FE
100
AcDbEntity
  8
5900A.05GT
100
AcDbLine
 10
8.18481087933226
 20
0.0000000000000207
 30
0.0
 11
8.138605919227892
 21
0.0000000000000207
 31
0.0
1001
REVIT
1002
{
1070
     2
1000
-2001350
1002
}
  0
LINE
  5
33E
330
2FE
100
AcDbEntity
  8
5900A.05GT
100
AcDbLine
 10
8.138605919227892
 20
0.0000000000000207
 30
0.0
 11
8.110153045281919
 21
0.0000000000000207
 31
0.0
1001
REVIT
1002
{
1070
     2
1000
-2001350
1002
}
  0
LINE
  5
33F
330
2FE
100
AcDbEntity
  8
5900A.05GT
100
AcDbLine
 10
8.110153045281919
 20
0.0000000000000207
 30
0.0
 11
8.100545685483535
 21
0.0000000000000207
 31
0.0
1001
REVIT
1002
{
1070
     2
1000
-2001350
1002
}
  0
LINE
  5
340
330
2FE
100
AcDbEntity
  8
5900A.05GT
100
AcDbLine
 10
16.13083952197223
 20
0.0000000000000207
 30
0.0
 11
16.13050755886289
 21
0.0000000000000207
 31
0.0
1001
REVIT
1002
{
1070
     2
1000
-2001350
1002
}
  0
LINE
  5
341
330
2FE
100
AcDbEntity
  8
5900A.05GT
100
AcDbLine
 10
16.13050755886289
 20
0.0000000000000207
 30
0.0
 11
16.11514032677795
 21
0.0000000000000207
 31
0.0
1001
REVIT
1002
{
1070
     2
1000
-2001350
1002
}
  0
LINE
  5
342
330
2FE
100
AcDbEntity
  8
5900A.05GT
100
AcDbLine
 10
16.11514032677795
 20
0.0000000000000207
 30
0.0
 11
16.07746824001473
 21
0.0000000000000207
 31
0.0
1001
REVIT
1002
{
1070
     2
1000
-2001350
1002
}
  0
LINE
  5
343
330
2FE
100
AcDbEntity
  8
5900A.05GT
100
AcDbLine
 10
16.07746824001473
 20
0.0000000000000207
 30
0.0
 11
16.0189390157408
 21
0.0000000000000207
 31
0.0
1001
REVIT
1002
{
1070
     2
1000
-2001350
1002
}
  0
LINE
  5
344
330
2FE
100
AcDbEntity
  8
5900A.05GT
100
AcDbLine
 10
16.0189390157408
 20
0.0000000000000207
 30
0.0
 11
15.94180189922144
 21
0.0000000000000207
 31
0.0
1001
REVIT
1002
{
1070
     2
1000
-2001350
1002
}
  0
LINE
  5
345
330
2FE
100
AcDbEntity
  8
5900A.05GT
100
AcDbLine
 10
15.94180189922144
 20
0.0000000000000207
 30
0.0
 11
15.84902122658548
 21
0.0000000000000207
 31
0.0
1001
REVIT
1002
{
1070
     2
1000
-2001350
1002
}
  0
LINE
  5
346
330
2FE
100
AcDbEntity
  8
5900A.05GT
100
AcDbLine
 10
15.84902122658548
 20
0.0000000000000207
 30
0.0
 11
15.74416250705034
 21
0.0000000000000207
 31
0.0
1001
REVIT
1002
{
1070
     2
1000
-2001350
1002
}
  0
LINE
  5
347
330
2FE
100
AcDbEntity
  8
5900A.05GT
100
AcDbLine
 10
15.74416250705034
 20
0.0000000000000207
 30
0.0
 11
15.63125540240231
 21
0.0000000000000207
 31
0.0
1001
REVIT
1002
{
1070
     2
1000
-2001350
1002
}
  0
LINE
  5
348
330
2FE
100
AcDbEntity
  8
5900A.05GT
100
AcDbLine
 10
15.63125540240231
 20
0.0000000000000207
 30
0.0
 11
15.51463886935396
 21
0.0000000000000207
 31
0.0
1001
REVIT
1002
{
1070
     2
1000
-2001350
1002
}
  0
LINE
  5
349
330
2FE
100
AcDbEntity
  8
5900A.05GT
100
AcDbLine
 10
15.51463886935396
 20
0.0000000000000207
 30
0.0
 11
15.39879441587104
 21
0.0000000000000207
 31
0.0
1001
REVIT
1002
{
1070
     2
1000
-2001350
1002
}
  0
LINE
  5
34A
330
2FE
100
AcDbEntity
  8
5900A.05GT
100
AcDbLine
 10
15.39879441587104
 20
0.0000000000000207
 30
0.0
 11
15.28817387933459
 21
0.0000000000000207
 31
0.0
1001
REVIT
1002
{
1070
     2
1000
-2001350
1002
}
  0
LINE
  5
34B
330
2FE
100
AcDbEntity
  8
5900A.05GT
100
AcDbLine
 10
15.28817387933459
 20
0.0000000000000207
 30
0.0
 11
15.18702834492698
 21
0.0000000000000207
 31
0.0
1001
REVIT
1002
{
1070
     2
1000
-2001350
1002
}
  0
LINE
  5
34C
330
2FE
100
AcDbEntity
  8
5900A.05GT
100
AcDbLine
 10
15.18702834492698
 20
0.0000000000000207
 30
0.0
 11
15.09924477881245
 21
0.0000000000000207
 31
0.0
1001
REVIT
1002
{
1070
     2
1000
-2001350
1002
}
  0
LINE
  5
34D
330
2FE
100
AcDbEntity
  8
5900A.05GT
100
AcDbLine
 10
15.09924477881245
 20
0.0000000000000207
 30
0.0
 11
15.02819665420716
 21
0.0000000000000207
 31
0.0
1001
REVIT
1002
{
1070
     2
1000
-2001350
1002
}
  0
LINE
  5
34E
330
2FE
100
AcDbEntity
  8
5900A.05GT
100
AcDbLine
 10
15.02819665420716
 20
0.0000000000000207
 30
0.0
 11
14.97661431069546
 21
0.0000000000000207
 31
0.0
1001
REVIT
1002
{
1070
     2
1000
-2001350
1002
}
  0
LINE
  5
34F
330
2FE
100
AcDbEntity
  8
5900A.05GT
100
AcDbLine
 10
14.97661431069546
 20
0.0000000000000207
 30
0.0
 11
14.9464800288108
 21
0.0000000000000207
 31
0.0
1001
REVIT
1002
{
1070
     2
1000
-2001350
1002
}
  0
LINE
  5
350
330
2FE
100
AcDbEntity
  8
5900A.05GT
100
AcDbLine
 10
14.9464800288108
 20
0.0000000000000207
 30
0.0
 11
14.93895185210648
 21
0.0000000000000207
 31
0.0
1001
REVIT
1002
{
1070
     2
1000
-2001350
1002
}
  0
LINE
  5
351
330
2FE
100
AcDbEntity
  8
5900A.05GT
100
AcDbLine
 10
14.93895185210648
 20
0.0000000000000207
 30
0.0
 11
14.93861988899714
 21
0.0000000000000207
 31
0.0
1001
REVIT
1002
{
1070
     2
1000
-2001350
1002
}
  0
LINE
  5
352
330
2FE
100
AcDbEntity
  8
5900A.05GT
100
AcDbLine
 10
16.13050755886289
 20
0.0000000000000207
 30
0.0
 11
16.13083952197223
 21
0.0000000000000207
 31
0.0
1001
REVIT
1002
{
1070
     2
1000
-2001350
1002
}
  0
ENDBLK
  5
300
330
2FE
100
AcDbEntity
  8
0
100
AcDbBlockEnd
  0
ENDSEC
  0
SECTION
  2
ENTITIES
  0
INSERT
  5
29B
330
70
100
AcDbEntity
  8
5900A.05GT
100
AcDbBlockReference
  2
AMSTD_Aquawash_5900A.05GT_Top View
 10
0.0000000000006914
 20
27.41018188087032
 30
0.0
  0
INSERT
  5
2FD
330
70
100
AcDbEntity
  8
5900A.05GT
100
AcDbBlockReference
  2
AMSTD_Aquawash_5900A.05GT_Front View
 10
0.0000000000007387
 20
-0.0000000000000435
 30
0.0
  0
INSERT
  5
353
330
70
100
AcDbEntity
  8
5900A.05GT
100
AcDbBlockReference
  2
AMSTD_Aquawash_5900A.05GT_Left View
 10
-36.96694987444637
 20
-0.0000000000000185
 30
0.0
  0
ENDSEC
  0
SECTION
  2
OBJECTS
  0
DICTIONARY
  5
C
330
0
100
AcDbDictionary
281
     1
  3
ACAD_BACKGROUND
350
173
  3
ACAD_CIP_PREVIOUS_PRODUCT_INFO
350
79
  3
ACAD_COLOR
350
63
  3
ACAD_DETAILVIEWSTYLE
350
6A
  3
ACAD_GROUP
350
D
  3
ACAD_IMAGE_VARS
350
7A
  3
ACAD_LAYOUT
350
62
  3
ACAD_MATERIAL
350
10
  3
ACAD_MLEADERSTYLE
350
66
  3
ACAD_MLINESTYLE
350
5F
  3
ACAD_PLOTSETTINGS
350
61
  3
ACAD_PLOTSTYLENAME
350
E
  3
ACAD_SCALELIST
350
42
  3
ACAD_SECTIONVIEWSTYLE
350
68
  3
ACAD_TABLESTYLE
350
64
  3
ACAD_VISUALSTYLE
350
29
  3
ACDB_RECOMPOSE_DATA
350
3EA
  3
AcDbVariableDictionary
350
B7
  3
REVIT_DICTIONARY
350
AD
  0
DICTIONARY
  5
357
330
2
100
AcDbDictionary
280
     1
281
     1
  3
ACAD_LAYERSTATES
360
358
  0
DICTIONARY
  5
B0
330
70
100
AcDbDictionary
280
     1
281
     1
  3
ACAD_SORTENTS
360
B1
  0
DICTIONARY
  5
173
102
{ACAD_REACTORS
330
C
102
}
330
C
100
AcDbDictionary
281
     1
  0
XRECORD
  5
79
102
{ACAD_REACTORS
330
C
102
}
330
C
100
AcDbXrecord
280
     1
300
ACD
300
2014
300
86063ACD_2014_0F
  0
DICTIONARY
  5
63
102
{ACAD_REACTORS
330
C
102
}
330
C
100
AcDbDictionary
281
     1
  0
DICTIONARY
  5
6A
102
{ACAD_REACTORS
330
C
102
}
330
C
100
AcDbDictionary
281
     1
  3
Imperial24
350
6B
  0
DICTIONARY
  5
D
102
{ACAD_REACTORS
330
C
102
}
330
C
100
AcDbDictionary
281
     1
  0
RASTERVARIABLES
  5
7A
102
{ACAD_REACTORS
330
C
102
}
330
C
100
AcDbRasterVariables
 90
        0
 70
     0
 71
     1
 72
     5
  0
DICTIONARY
  5
62
102
{ACAD_REACTORS
330
C
102
}
330
C
100
AcDbDictionary
281
     1
  3
Layout1
350
6F
  3
Layout2
350
77
  3
Model
350
73
  0
DICTIONARY
  5
10
102
{ACAD_REACTORS
330
C
102
}
330
C
100
AcDbDictionary
281
     1
  3
ByBlock
350
19
  3
ByLayer
350
11
  3
Global
350
21
  0
DICTIONARY
  5
66
102
{ACAD_REACTORS
330
C
102
}
330
C
100
AcDbDictionary
281
     1
  3
Standard
350
67
  0
DICTIONARY
  5
5F
102
{ACAD_REACTORS
330
C
102
}
330
C
100
AcDbDictionary
281
     1
  3
Standard
350
60
  0
DICTIONARY
  5
61
102
{ACAD_REACTORS
330
C
102
}
330
C
100
AcDbDictionary
281
     1
  0
ACDBDICTIONARYWDFLT
  5
E
102
{ACAD_REACTORS
330
C
102
}
330
C
100
AcDbDictionary
281
     1
  3
Normal
350
F
100
AcDbDictionaryWithDefault
340
F
  0
DICTIONARY
  5
42
102
{ACAD_REACTORS
330
C
102
}
330
C
100
AcDbDictionary
281
     1
  3
A0
350
43
  3
A1
350
44
  3
A2
350
45
  3
A3
350
46
  3
A4
350
47
  3
A5
350
48
  3
A6
350
49
  3
A7
350
4A
  3
A8
350
4B
  3
A9
350
4C
  3
B0
350
4D
  3
B1
350
4E
  3
B2
350
4F
  3
B3
350
50
  3
B4
350
51
  3
B5
350
52
  3
B6
350
53
  0
DICTIONARY
  5
68
102
{ACAD_REACTORS
330
C
102
}
330
C
100
AcDbDictionary
281
     1
  3
Imperial24
350
69
  0
DICTIONARY
  5
64
102
{ACAD_REACTORS
330
C
102
}
330
C
100
AcDbDictionary
281
     1
  3
Standard
350
65
  0
DICTIONARY
  5
29
102
{ACAD_REACTORS
330
C
102
}
330
C
100
AcDbDictionary
281
     1
  3
2dWireframe
350
2F
  3
Basic
350
2E
  3
Brighten
350
35
  3
ColorChange
350
39
  3
Conceptual
350
32
  3
Dim
350
34
  3
EdgeColorOff
350
41
  3
Facepattern
350
38
  3
Flat
350
2A
  3
FlatWithEdges
350
2B
  3
Gouraud
350
2C
  3
GouraudWithEdges
350
2D
  3
Hidden
350
31
  3
JitterOff
350
3F
  3
Linepattern
350
37
  3
OverhangOff
350
40
  3
Realistic
350
33
  3
Shaded
350
3E
  3
Shaded with edges
350
3D
  3
Shades of Gray
350
3A
  3
Sketchy
350
3B
  3
Thicken
350
36
  3
Wireframe
350
30
  3
X-Ray
350
3C
  0
XRECORD
  5
3EA
102
{ACAD_REACTORS
330
C
102
}
330
C
100
AcDbXrecord
280
     1
 90
        1
330
65
330
69
330
6B
  0
DICTIONARY
  5
B7
102
{ACAD_REACTORS
330
C
102
}
330
C
100
AcDbDictionary
281
     1
  3
CANNOSCALE
350
BC
  3
CMLEADERSTYLE
350
B9
  3
CTABLESTYLE
350
B8
  3
CVIEWDETAILSTYLE
350
BA
  3
CVIEWSECTIONSTYLE
350
BB
  0
DICTIONARY
  5
AD
102
{ACAD_REACTORS
330
C
102
}
330
C
100
AcDbDictionary
281
     1
  3
DRAWING_TOOL
350
AF
  3
REVIT_CATEGORY_MAPPING
350
AE
  0
DICTIONARY
  5
358
102
{ACAD_REACTORS
330
357
102
}
330
357
100
AcDbDictionary
281
     1
  0
SORTENTSTABLE
  5
B1
102
{ACAD_REACTORS
330
B0
102
}
330
B0
100
AcDbSortentsTable
330
70
  0
ACDBDETAILVIEWSTYLE
  5
6B
102
{ACAD_XDICTIONARY
360
3E8
102
}
102
{ACAD_REACTORS
330
6A
102
}
330
6A
100
AcDbModelDocViewStyle
 70
     0
  3
Imperial24
290
     0
100
AcDbDetailViewStyle
 70
     0
 71
     0
 90
        3
 71
     1
340
55
 62
   256
 40
0.24
340
0
 62
   256
 40
0.24
300

 40
0.36
280
     3
 71
     2
340
5D
 90
       25
 62
   256
 71
     3
340
55
 62
   256
 40
0.24
 90
        1
 40
0.75
 90
        1
300
%<\AcVar ViewType \f "%tc1">% %<\AcVar ViewDetailId>%\PSCALE %<\AcVar ViewScale \f "%sn">%
 71
     4
340
5D
 90
       25
 62
   256
340
5D
 90
       25
 62
   256
280
     0
  0
LAYOUT
  5
6F
102
{ACAD_REACTORS
330
62
102
}
330
62
100
AcDbPlotSettings
  1

  2

  4

  6

 40
0.0
 41
0.0
 42
0.0
 43
0.0
 44
0.0
 45
0.0
 46
0.0
 47
0.0
 48
0.0
 49
0.0
140
0.0
141
0.0
142
1.0
143
1.0
 70
   688
 72
     0
 73
     0
 74
     5
  7

 75
    16
147
1.0
 76
     0
 77
     2
 78
   300
148
0.0
149
0.0
100
AcDbLayout
  1
Layout1
 70
     1
 71
     1
 10
0.0
 20
0.0
 11
12.0
 21
9.0
 12
0.0
 22
0.0
 32
0.0
 14
1.000000000000000E+20
 24
1.000000000000000E+20
 34
1.000000000000000E+20
 15
-1.000000000000000E+20
 25
-1.000000000000000E+20
 35
-1.000000000000000E+20
146
0.0
 13
0.0
 23
0.0
 33
0.0
 16
1.0
 26
0.0
 36
0.0
 17
0.0
 27
1.0
 37
0.0
 76
     0
330
6C
  0
LAYOUT
  5
77
102
{ACAD_REACTORS
330
62
102
}
330
62
100
AcDbPlotSettings
  1

  2

  4

  6

 40
0.0
 41
0.0
 42
0.0
 43
0.0
 44
0.0
 45
0.0
 46
0.0
 47
0.0
 48
0.0
 49
0.0
140
0.0
141
0.0
142
1.0
143
1.0
 70
   688
 72
     0
 73
     0
 74
     5
  7

 75
    16
147
1.0
 76
     0
 77
     2
 78
   300
148
0.0
149
0.0
100
AcDbLayout
  1
Layout2
 70
     1
 71
     2
 10
0.0
 20
0.0
 11
12.0
 21
9.0
 12
0.0
 22
0.0
 32
0.0
 14
0.0
 24
0.0
 34
0.0
 15
0.0
 25
0.0
 35
0.0
146
0.0
 13
0.0
 23
0.0
 33
0.0
 16
1.0
 26
0.0
 36
0.0
 17
0.0
 27
1.0
 37
0.0
 76
     0
330
74
  0
LAYOUT
  5
73
102
{ACAD_XDICTIONARY
360
3DE
102
}
102
{ACAD_REACTORS
330
62
102
}
330
62
100
AcDbPlotSettings
  1

  2

  4

  6

 40
0.0
 41
0.0
 42
0.0
 43
0.0
 44
0.0
 45
0.0
 46
0.0
 47
0.0
 48
0.0
 49
0.0
140
0.0
141
0.0
142
1.0
143
1.0
 70
  1712
 72
     0
 73
     0
 74
     0
  7

 75
     0
147
1.0
 76
     0
 77
     2
 78
   300
148
0.0
149
0.0
100
AcDbLayout
  1
Model
 70
     1
 71
     0
 10
0.0
 20
0.0
 11
12.0
 21
9.0
 12
0.0
 22
0.0
 32
0.0
 14
0.0
 24
0.0
 34
0.0
 15
0.0
 25
0.0
 35
0.0
146
0.0
 13
0.0
 23
0.0
 33
0.0
 16
1.0
 26
0.0
 36
0.0
 17
0.0
 27
1.0
 37
0.0
 76
     0
330
70
331
57
  0
MATERIAL
  5
19
102
{ACAD_XDICTIONARY
360
1A
102
}
102
{ACAD_REACTORS
330
10
102
}
330
10
100
AcDbMaterial
  1
ByBlock
 72
     0
 43
0.0208333333333333
 43
0.0
 43
0.0
 43
0.0
 43
0.0
 43
0.0208333333333333
 43
0.0
 43
0.0
 43
0.0
 43
0.0
 43
1.0
 43
0.0
 43
0.0
 43
0.0
 43
0.0
 43
1.0
 77
     0
 47
0.0208333333333333
 47
0.0
 47
0.0
 47
0.0
 47
0.0
 47
0.0208333333333333
 47
0.0
 47
0.0
 47
0.0
 47
0.0
 47
1.0
 47
0.0
 47
0.0
 47
0.0
 47
0.0
 47
1.0
171
     0
 49
0.0208333333333333
 49
0.0
 49
0.0
 49
0.0
 49
0.0
 49
0.0208333333333333
 49
0.0
 49
0.0
 49
0.0
 49
0.0
 49
1.0
 49
0.0
 49
0.0
 49
0.0
 49
0.0
 49
1.0
175
     0
142
0.0208333333333333
142
0.0
142
0.0
142
0.0
142
0.0
142
0.0208333333333333
142
0.0
142
0.0
142
0.0
142
0.0
142
1.0
142
0.0
142
0.0
142
0.0
142
0.0
142
1.0
179
     0
144
0.0208333333333333
144
0.0
144
0.0
144
0.0
144
0.0
144
0.0208333333333333
144
0.0
144
0.0
144
0.0
144
0.0
144
1.0
144
0.0
144
0.0
144
0.0
144
0.0
144
1.0
147
0.0208333333333333
147
0.0
147
0.0
147
0.0
147
0.0
147
0.0208333333333333
147
0.0
147
0.0
147
0.0
147
0.0
147
1.0
147
0.0
147
0.0
147
0.0
147
0.0
147
1.0
  0
MATERIAL
  5
11
102
{ACAD_XDICTIONARY
360
12
102
}
102
{ACAD_REACTORS
330
10
102
}
330
10
100
AcDbMaterial
  1
ByLayer
 72
     0
 43
0.0208333333333333
 43
0.0
 43
0.0
 43
0.0
 43
0.0
 43
0.0208333333333333
 43
0.0
 43
0.0
 43
0.0
 43
0.0
 43
1.0
 43
0.0
 43
0.0
 43
0.0
 43
0.0
 43
1.0
 77
     0
 47
0.0208333333333333
 47
0.0
 47
0.0
 47
0.0
 47
0.0
 47
0.0208333333333333
 47
0.0
 47
0.0
 47
0.0
 47
0.0
 47
1.0
 47
0.0
 47
0.0
 47
0.0
 47
0.0
 47
1.0
171
     0
 49
0.0208333333333333
 49
0.0
 49
0.0
 49
0.0
 49
0.0
 49
0.0208333333333333
 49
0.0
 49
0.0
 49
0.0
 49
0.0
 49
1.0
 49
0.0
 49
0.0
 49
0.0
 49
0.0
 49
1.0
175
     0
142
0.0208333333333333
142
0.0
142
0.0
142
0.0
142
0.0
142
0.0208333333333333
142
0.0
142
0.0
142
0.0
142
0.0
142
1.0
142
0.0
142
0.0
142
0.0
142
0.0
142
1.0
179
     0
144
0.0208333333333333
144
0.0
144
0.0
144
0.0
144
0.0
144
0.0208333333333333
144
0.0
144
0.0
144
0.0
144
0.0
144
1.0
144
0.0
144
0.0
144
0.0
144
0.0
144
1.0
147
0.0208333333333333
147
0.0
147
0.0
147
0.0
147
0.0
147
0.0208333333333333
147
0.0
147
0.0
147
0.0
147
0.0
147
1.0
147
0.0
147
0.0
147
0.0
147
0.0
147
1.0
  0
MATERIAL
  5
21
102
{ACAD_XDICTIONARY
360
22
102
}
102
{ACAD_REACTORS
330
10
102
}
330
10
100
AcDbMaterial
  1
Global
 72
     0
 43
0.0208333333333333
 43
0.0
 43
0.0
 43
0.0
 43
0.0
 43
0.0208333333333333
 43
0.0
 43
0.0
 43
0.0
 43
0.0
 43
1.0
 43
0.0
 43
0.0
 43
0.0
 43
0.0
 43
1.0
 77
     0
 47
0.0208333333333333
 47
0.0
 47
0.0
 47
0.0
 47
0.0
 47
0.0208333333333333
 47
0.0
 47
0.0
 47
0.0
 47
0.0
 47
1.0
 47
0.0
 47
0.0
 47
0.0
 47
0.0
 47
1.0
171
     0
 49
0.0208333333333333
 49
0.0
 49
0.0
 49
0.0
 49
0.0
 49
0.0208333333333333
 49
0.0
 49
0.0
 49
0.0
 49
0.0
 49
1.0
 49
0.0
 49
0.0
 49
0.0
 49
0.0
 49
1.0
175
     0
142
0.0208333333333333
142
0.0
142
0.0
142
0.0
142
0.0
142
0.0208333333333333
142
0.0
142
0.0
142
0.0
142
0.0
142
1.0
142
0.0
142
0.0
142
0.0
142
0.0
142
1.0
179
     0
144
0.0208333333333333
144
0.0
144
0.0
144
0.0
144
0.0
144
0.0208333333333333
144
0.0
144
0.0
144
0.0
144
0.0
144
1.0
144
0.0
144
0.0
144
0.0
144
0.0
144
1.0
147
0.0208333333333333
147
0.0
147
0.0
147
0.0
147
0.0
147
0.0208333333333333
147
0.0
147
0.0
147
0.0
147
0.0
147
1.0
147
0.0
147
0.0
147
0.0
147
0.0
147
1.0
  0
MLEADERSTYLE
  5
67
102
{ACAD_REACTORS
330
66
102
}
330
66
100
AcDbMLeaderStyle
179
     2
170
     2
171
     1
172
     0
 90
        2
 40
0.0
 41
0.0
173
     1
 91
-1056964608
340
5B
 92
       -2
290
     1
 42
0.09
291
     1
 43
0.36
  3
Standard
 44
0.18
300

342
55
174
     1
178
     6
175
     1
176
     0
 93
-1056964608
 45
0.18
292
     0
297
     0
 46
0.18
 94
-1056964608
 47
1.0
 49
1.0
140
1.0
293
     1
141
0.0
294
     1
177
     0
142
1.0
295
     0
296
     0
143
0.125
271
     0
272
     9
273
     9
298
     1
  0
MLINESTYLE
  5
60
102
{ACAD_REACTORS
330
5F
102
}
330
5F
100
AcDbMlineStyle
  2
STANDARD
 70
     0
  3

 62
   256
 51
90.0
 52
90.0
 71
     2
 49
0.5
 62
   256
  6
BYLAYER
 49
-0.5
 62
   256
  6
BYLAYER
  0
ACDBPLACEHOLDER
  5
F
102
{ACAD_REACTORS
330
E
102
}
330
E
  0
SCALE
  5
43
102
{ACAD_REACTORS
330
42
102
}
330
42
100
AcDbScale
 70
     0
300
1:1
140
1.0
141
1.0
290
     1
  0
SCALE
  5
44
102
{ACAD_REACTORS
330
42
102
}
330
42
100
AcDbScale
 70
     0
300
1/128" = 1'-0"
140
0.0078125
141
12.0
290
     0
  0
SCALE
  5
45
102
{ACAD_REACTORS
330
42
102
}
330
42
100
AcDbScale
 70
     0
300
1/64" = 1'-0"
140
0.015625
141
12.0
290
     0
  0
SCALE
  5
46
102
{ACAD_REACTORS
330
42
102
}
330
42
100
AcDbScale
 70
     0
300
1/32" = 1'-0"
140
0.03125
141
12.0
290
     0
  0
SCALE
  5
47
102
{ACAD_REACTORS
330
42
102
}
330
42
100
AcDbScale
 70
     0
300
1/16" = 1'-0"
140
0.0625
141
12.0
290
     0
  0
SCALE
  5
48
102
{ACAD_REACTORS
330
42
102
}
330
42
100
AcDbScale
 70
     0
300
3/32" = 1'-0"
140
0.09375
141
12.0
290
     0
  0
SCALE
  5
49
102
{ACAD_REACTORS
330
42
102
}
330
42
100
AcDbScale
 70
     0
300
1/8" = 1'-0"
140
0.125
141
12.0
290
     0
  0
SCALE
  5
4A
102
{ACAD_REACTORS
330
42
102
}
330
42
100
AcDbScale
 70
     0
300
3/16" = 1'-0"
140
0.1875
141
12.0
290
     0
  0
SCALE
  5
4B
102
{ACAD_REACTORS
330
42
102
}
330
42
100
AcDbScale
 70
     0
300
1/4" = 1'-0"
140
0.25
141
12.0
290
     0
  0
SCALE
  5
4C
102
{ACAD_REACTORS
330
42
102
}
330
42
100
AcDbScale
 70
     0
300
3/8" = 1'-0"
140
0.375
141
12.0
290
     0
  0
SCALE
  5
4D
102
{ACAD_REACTORS
330
42
102
}
330
42
100
AcDbScale
 70
     0
300
1/2" = 1'-0"
140
0.5
141
12.0
290
     0
  0
SCALE
  5
4E
102
{ACAD_REACTORS
330
42
102
}
330
42
100
AcDbScale
 70
     0
300
3/4" = 1'-0"
140
0.75
141
12.0
290
     0
  0
SCALE
  5
4F
102
{ACAD_REACTORS
330
42
102
}
330
42
100
AcDbScale
 70
     0
300
1" = 1'-0"
140
1.0
141
12.0
290
     0
  0
SCALE
  5
50
102
{ACAD_REACTORS
330
42
102
}
330
42
100
AcDbScale
 70
     0
300
1-1/2" = 1'-0"
140
1.5
141
12.0
290
     0
  0
SCALE
  5
51
102
{ACAD_REACTORS
330
42
102
}
330
42
100
AcDbScale
 70
     0
300
3" = 1'-0"
140
3.0
141
12.0
290
     0
  0
SCALE
  5
52
102
{ACAD_REACTORS
330
42
102
}
330
42
100
AcDbScale
 70
     0
300
6" = 1'-0"
140
6.0
141
12.0
290
     0
  0
SCALE
  5
53
102
{ACAD_REACTORS
330
42
102
}
330
42
100
AcDbScale
 70
     0
300
1'-0" = 1'-0"
140
12.0
141
12.0
290
     0
  0
ACDBSECTIONVIEWSTYLE
  5
69
102
{ACAD_XDICTIONARY
360
3E6
102
}
102
{ACAD_REACTORS
330
68
102
}
330
68
100
AcDbModelDocViewStyle
 70
     0
  3
Imperial24
290
     0
100
AcDbSectionViewStyle
 70
     0
 71
     0
 90
       78
 71
     1
340
55
 62
   256
 40
0.24
340
0
340
0
 62
   256
 40
0.24
300
I, O, Q, S, X, Z
 40
0.48
 90
        3
 40
0.18
 90
        1
 71
     2
340
5D
 90
       25
 62
   256
340
5D
 90
       50
 62
   256
 40
0.24
 40
0.0
 40
0.24
 71
     3
340
55
 62
   256
 40
0.24
 90
        1
 40
0.75
 90
        1
300
%<\AcVar ViewType \f "%tc1">% %<\AcVar ViewSectionStartId>%-%<\AcVar ViewSectionEndId>%\PSCALE %<\AcVar ViewScale \f "%sn">%
 71
     4
 62
   256
 62
   257
300
ANSI31
 40
1.0
 90
        0
290
     0
290
     0
 90
        6
 40
0.0
 40
1.570796326794896
 40
0.2617993877991494
 40
1.308996938995747
 40
-0.2617993877991494
 40
1.832595714594046
  0
TABLESTYLE
  5
65
102
{ACAD_XDICTIONARY
360
3E4
102
}
102
{ACAD_REACTORS
330
64
102
}
330
64
100
AcDbTableStyle
280
     0
  3
Standard
 70
     0
 71
     0
 40
0.06
 41
0.06
280
     0
281
     0
  7
Standard
140
0.18
170
     2
 62
     0
 63
     7
283
     0
 90
      512
 91
        0
  1

274
    -2
284
     1
 64
     0
275
    -2
285
     1
 65
     0
276
    -2
286
     1
 66
     0
277
    -2
287
     1
 67
     0
278
    -2
288
     1
 68
     0
279
    -2
289
     1
 69
     0
  7
Standard
140
0.25
170
     5
 62
     0
 63
     7
283
     0
 90
      512
 91
        0
  1

274
    -2
284
     1
 64
     0
275
    -2
285
     1
 65
     0
276
    -2
286
     1
 66
     0
277
    -2
287
     1
 67
     0
278
    -2
288
     1
 68
     0
279
    -2
289
     1
 69
     0
  7
Standard
140
0.18
170
     5
 62
     0
 63
     7
283
     0
 90
      512
 91
        0
  1

274
    -2
284
     1
 64
     0
275
    -2
285
     1
 65
     0
276
    -2
286
     1
 66
     0
277
    -2
287
     1
 67
     0
278
    -2
288
     1
 68
     0
279
    -2
289
     1
 69
     0
  0
VISUALSTYLE
  5
2F
102
{ACAD_REACTORS
330
29
102
}
330
29
100
AcDbVisualStyle
  2
2dWireframe
 70
     4
177
     3
291
     0
 70
    58
 90
        0
176
     1
 90
        2
176
     1
 90
        0
176
     1
 90
        0
176
     1
 40
0.6
176
     1
 40
30.0
176
     1
 62
     7
420
 16777215
176
     1
 90
        1
176
     1
 90
        4
176
     1
 62
     7
176
     1
 62
   257
176
     1
 90
        1
176
     1
 90
        1
176
     1
 40
1.0
176
     1
 90
        0
176
     1
 62
   257
176
     1
 40
1.0
176
     1
 90
        1
176
     1
 90
        6
176
     1
 90
        2
176
     1
 62
     7
176
     1
 90
        5
176
     1
 90
        0
176
     1
 90
        0
176
     1
290
     0
176
     1
 90
        1
176
     1
 40
0.0
176
     1
 90
        0
176
     1
290
     1
176
     1
290
     1
176
     1
290
     0
176
     1
290
     0
176
     1
290
     0
176
     1
290
     0
176
     1
290
     0
176
     1
290
     0
176
     1
290
     0
176
     1
 90
       50
176
     1
 40
0.0
176
     1
 40
1.0
176
     1
 90
        0
176
     1
 62
    18
420
        0
176
     1
 90
       50
176
     1
 90
        3
176
     1
 62
     5
420
      255
176
     1
290
     0
176
     1
 90
       50
176
     1
 90
       50
176
     1
 90
       50
176
     1
290
     0
176
     1
 90
       50
176
     1
 62
   256
176
     0
 40
1.0
176
     0
 90
        2
176
     1
  1
strokes_ogs.tif
176
     1
290
     0
176
     1
 40
1.0
176
     1
 40
1.0
176
     1
  0
VISUALSTYLE
  5
2E
102
{ACAD_REACTORS
330
29
102
}
330
29
100
AcDbVisualStyle
  2
Basic
 70
     7
177
     3
291
     1
 70
    58
 90
        1
176
     1
 90
        0
176
     1
 90
        1
176
     1
 90
        0
176
     1
 40
0.6
176
     1
 40
30.0
176
     1
 62
     7
420
 16777215
176
     1
 90
        0
176
     1
 90
        4
176
     1
 62
     7
176
     1
 62
   257
176
     1
 90
        1
176
     1
 90
        1
176
     1
 40
1.0
176
     1
 90
        8
176
     1
 62
     7
176
     1
 40
1.0
176
     1
 90
        1
176
     1
 90
        6
176
     1
 90
        2
176
     1
 62
     7
176
     1
 90
        5
176
     1
 90
        0
176
     1
 90
        0
176
     1
290
     0
176
     1
 90
        1
176
     1
 40
0.0
176
     1
 90
        0
176
     1
290
     0
176
     1
290
     1
176
     1
290
     1
176
     1
290
     0
176
     1
290
     0
176
     1
290
     0
176
     1
290
     0
176
     1
290
     0
176
     1
290
     0
176
     1
 90
       50
176
     1
 40
0.0
176
     1
 40
1.0
176
     1
 90
        0
176
     1
 62
    18
420
        0
176
     1
 90
       50
176
     1
 90
        3
176
     1
 62
     5
420
      255
176
     1
290
     0
176
     1
 90
       50
176
     1
 90
       50
176
     1
 90
       50
176
     1
290
     0
176
     1
 90
       50
176
     1
 62
   256
176
     0
 40
1.0
176
     0
 90
        2
176
     1
  1
strokes_ogs.tif
176
     1
290
     0
176
     1
 40
1.0
176
     1
 40
1.0
176
     1
  0
VISUALSTYLE
  5
35
102
{ACAD_REACTORS
330
29
102
}
330
29
100
AcDbVisualStyle
  2
Brighten
 70
    12
177
     3
291
     1
 70
    58
 90
        2
176
     1
 90
        2
176
     1
 90
        0
176
     1
 90
        0
176
     1
 40
0.6
176
     1
 40
30.0
176
     1
 62
     7
420
 16777215
176
     1
 90
        1
176
     1
 90
        4
176
     1
 62
     7
176
     1
 62
   257
176
     1
 90
        1
176
     1
 90
        1
176
     1
 40
1.0
176
     1
 90
        8
176
     1
 62
     7
176
     1
 40
1.0
176
     1
 90
        1
176
     1
 90
        6
176
     1
 90
        2
176
     1
 62
     7
176
     1
 90
        5
176
     1
 90
        0
176
     1
 90
        0
176
     1
290
     0
176
     1
 90
        1
176
     1
 40
50.0
176
     1
 90
        0
176
     1
290
     0
176
     1
290
     1
176
     1
290
     1
176
     1
290
     0
176
     1
290
     0
176
     1
290
     0
176
     1
290
     0
176
     1
290
     0
176
     1
290
     0
176
     1
 90
       50
176
     1
 40
0.0
176
     1
 40
1.0
176
     1
 90
        0
176
     1
 62
    18
420
        0
176
     1
 90
       50
176
     1
 90
        3
176
     1
 62
     5
420
      255
176
     1
290
     0
176
     1
 90
       50
176
     1
 90
       50
176
     1
 90
       50
176
     1
290
     0
176
     1
 90
       50
176
     1
 62
   256
176
     0
 40
1.0
176
     0
 90
        2
176
     1
  1
strokes_ogs.tif
176
     1
290
     0
176
     1
 40
1.0
176
     1
 40
1.0
176
     1
  0
VISUALSTYLE
  5
39
102
{ACAD_REACTORS
330
29
102
}
330
29
100
AcDbVisualStyle
  2
ColorChange
 70
    16
177
     3
291
     1
 70
    58
 90
        2
176
     1
 90
        2
176
     1
 90
        3
176
     1
 90
        0
176
     1
 40
0.6
176
     1
 40
30.0
176
     1
 62
     8
420
  8421504
176
     1
 90
        1
176
     1
 90
        4
176
     1
 62
     7
176
     1
 62
   257
176
     1
 90
        1
176
     1
 90
        1
176
     1
 40
1.0
176
     1
 90
        8
176
     1
 62
     8
420
  8421504
176
     1
 40
1.0
176
     1
 90
        1
176
     1
 90
        6
176
     1
 90
        2
176
     1
 62
     7
176
     1
 90
        5
176
     1
 90
        0
176
     1
 90
        0
176
     1
290
     0
176
     1
 90
        1
176
     1
 40
0.0
176
     1
 90
        0
176
     1
290
     0
176
     1
290
     1
176
     1
290
     1
176
     1
290
     0
176
     1
290
     0
176
     1
290
     0
176
     1
290
     0
176
     1
290
     0
176
     1
290
     0
176
     1
 90
       50
176
     1
 40
0.0
176
     1
 40
1.0
176
     1
 90
        0
176
     1
 62
    18
420
        0
176
     1
 90
       50
176
     1
 90
        3
176
     1
 62
     5
420
      255
176
     1
290
     0
176
     1
 90
       50
176
     1
 90
       50
176
     1
 90
       50
176
     1
290
     0
176
     1
 90
       50
176
     1
 62
   256
176
     0
 40
1.0
176
     0
 90
        2
176
     1
  1
strokes_ogs.tif
176
     1
290
     0
176
     1
 40
1.0
176
     1
 40
1.0
176
     1
  0
VISUALSTYLE
  5
32
102
{ACAD_REACTORS
330
29
102
}
330
29
100
AcDbVisualStyle
  2
Conceptual
 70
     9
177
     3
291
     0
 70
    58
 90
        3
176
     1
 90
        2
176
     1
 90
        0
176
     1
 90
        0
176
     1
 40
0.6
176
     1
 40
30.0
176
     1
 62
     7
420
 16777215
176
     1
 90
        2
176
     1
 90
        2
176
     1
 62
     7
176
     1
 62
   257
176
     1
 90
        1
176
     1
 90
        1
176
     1
 40
179.0
176
     1
 90
        8
176
     1
 62
     7
176
     1
 40
1.0
176
     1
 90
        1
176
     1
 90
        6
176
     1
 90
        2
176
     1
 62
     7
176
     1
 90
        3
176
     1
 90
        0
176
     1
 90
        0
176
     1
290
     0
176
     1
 90
        1
176
     1
 40
0.0
176
     1
 90
        0
176
     1
290
     0
176
     1
290
     1
176
     1
290
     1
176
     1
290
     0
176
     1
290
     0
176
     1
290
     0
176
     1
290
     0
176
     1
290
     0
176
     1
290
     0
176
     1
 90
       50
176
     1
 40
0.0
176
     1
 40
1.0
176
     1
 90
        0
176
     1
 62
    18
420
        0
176
     1
 90
       50
176
     1
 90
        3
176
     1
 62
     5
420
      255
176
     1
290
     0
176
     1
 90
       50
176
     1
 90
       50
176
     1
 90
       50
176
     1
290
     0
176
     1
 90
       50
176
     1
 62
   256
176
     0
 40
1.0
176
     0
 90
        2
176
     1
  1
strokes_ogs.tif
176
     1
290
     0
176
     1
 40
1.0
176
     1
 40
1.0
176
     1
  0
VISUALSTYLE
  5
34
102
{ACAD_REACTORS
330
29
102
}
330
29
100
AcDbVisualStyle
  2
Dim
 70
    11
177
     3
291
     1
 70
    58
 90
        2
176
     1
 90
        2
176
     1
 90
        0
176
     1
 90
        0
176
     1
 40
0.6
176
     1
 40
30.0
176
     1
 62
     7
420
 16777215
176
     1
 90
        1
176
     1
 90
        4
176
     1
 62
     7
176
     1
 62
   257
176
     1
 90
        1
176
     1
 90
        1
176
     1
 40
1.0
176
     1
 90
        8
176
     1
 62
     7
176
     1
 40
1.0
176
     1
 90
        1
176
     1
 90
        6
176
     1
 90
        2
176
     1
 62
     7
176
     1
 90
        5
176
     1
 90
        0
176
     1
 90
        0
176
     1
290
     0
176
     1
 90
        1
176
     1
 40
-50.0
176
     1
 90
        0
176
     1
290
     0
176
     1
290
     1
176
     1
290
     1
176
     1
290
     0
176
     1
290
     0
176
     1
290
     0
176
     1
290
     0
176
     1
290
     0
176
     1
290
     0
176
     1
 90
       50
176
     1
 40
0.0
176
     1
 40
1.0
176
     1
 90
        0
176
     1
 62
    18
420
        0
176
     1
 90
       50
176
     1
 90
        3
176
     1
 62
     5
420
      255
176
     1
290
     0
176
     1
 90
       50
176
     1
 90
       50
176
     1
 90
       50
176
     1
290
     0
176
     1
 90
       50
176
     1
 62
   256
176
     0
 40
1.0
176
     0
 90
        2
176
     1
  1
strokes_ogs.tif
176
     1
290
     0
176
     1
 40
1.0
176
     1
 40
1.0
176
     1
  0
VISUALSTYLE
  5
41
102
{ACAD_REACTORS
330
29
102
}
330
29
100
AcDbVisualStyle
  2
EdgeColorOff
 70
    22
177
     3
291
     1
 70
    58
 90
        2
176
     0
 90
        2
176
     0
 90
        0
176
     0
 90
        0
176
     0
 40
0.6
176
     0
 40
30.0
176
     0
 62
     7
420
 16777215
176
     0
 90
        1
176
     0
 90
        4
176
     0
 62
     7
176
     0
 62
   257
176
     0
 90
        1
176
     0
 90
        1
176
     0
 40
1.0
176
     0
 90
        8
176
     2
 62
     7
176
     0
 40
1.0
176
     0
 90
        1
176
     0
 90
        6
176
     0
 90
        2
176
     0
 62
     7
176
     0
 90
        5
176
     0
 90
        0
176
     0
 90
        0
176
     0
290
     0
176
     0
 90
        1
176
     0
 40
0.0
176
     0
 90
        0
176
     0
290
     0
176
     0
290
     1
176
     0
290
     1
176
     0
290
     0
176
     0
290
     0
176
     0
290
     0
176
     0
290
     0
176
     0
290
     0
176
     0
290
     0
176
     0
 90
       50
176
     0
 40
0.0
176
     0
 40
1.0
176
     0
 90
        0
176
     0
 62
    18
420
        0
176
     0
 90
       50
176
     0
 90
        3
176
     0
 62
     5
420
      255
176
     0
290
     0
176
     0
 90
       50
176
     0
 90
       50
176
     0
 90
       50
176
     0
290
     0
176
     0
 90
       50
176
     0
 62
   256
176
     0
 40
1.0
176
     0
 90
        2
176
     0
  1
strokes_ogs.tif
176
     0
290
     0
176
     0
 40
1.0
176
     0
 40
1.0
176
     0
  0
VISUALSTYLE
  5
38
102
{ACAD_REACTORS
330
29
102
}
330
29
100
AcDbVisualStyle
  2
Facepattern
 70
    15
177
     3
291
     1
 70
    58
 90
        2
176
     1
 90
        2
176
     1
 90
        0
176
     1
 90
        0
176
     1
 40
0.6
176
     1
 40
30.0
176
     1
 62
     7
420
 16777215
176
     1
 90
        1
176
     1
 90
        4
176
     1
 62
     7
176
     1
 62
   257
176
     1
 90
        1
176
     1
 90
        1
176
     1
 40
1.0
176
     1
 90
        8
176
     1
 62
     7
176
     1
 40
1.0
176
     1
 90
        1
176
     1
 90
        6
176
     1
 90
        2
176
     1
 62
     7
176
     1
 90
        5
176
     1
 90
        0
176
     1
 90
        0
176
     1
290
     0
176
     1
 90
        1
176
     1
 40
0.0
176
     1
 90
        0
176
     1
290
     0
176
     1
290
     1
176
     1
290
     1
176
     1
290
     0
176
     1
290
     0
176
     1
290
     0
176
     1
290
     0
176
     1
290
     0
176
     1
290
     0
176
     1
 90
       50
176
     1
 40
0.0
176
     1
 40
1.0
176
     1
 90
        0
176
     1
 62
    18
420
        0
176
     1
 90
       50
176
     1
 90
        3
176
     1
 62
     5
420
      255
176
     1
290
     0
176
     1
 90
       50
176
     1
 90
       50
176
     1
 90
       50
176
     1
290
     0
176
     1
 90
       50
176
     1
 62
   256
176
     0
 40
1.0
176
     0
 90
        2
176
     1
  1
strokes_ogs.tif
176
     1
290
     0
176
     1
 40
1.0
176
     1
 40
1.0
176
     1
  0
VISUALSTYLE
  5
2A
102
{ACAD_REACTORS
330
29
102
}
330
29
100
AcDbVisualStyle
  2
Flat
 70
     0
177
     3
291
     1
 70
    58
 90
        2
176
     1
 90
        1
176
     1
 90
        1
176
     1
 90
        2
176
     1
 40
0.6
176
     1
 40
30.0
176
     1
 62
     7
420
 16777215
176
     1
 90
        0
176
     1
 90
        0
176
     1
 62
     7
176
     1
 62
   257
176
     1
 90
        1
176
     1
 90
        1
176
     1
 40
1.0
176
     1
 90
        8
176
     1
 62
     7
176
     1
 40
1.0
176
     1
 90
        1
176
     1
 90
        6
176
     1
 90
        2
176
     1
 62
     7
176
     1
 90
        5
176
     1
 90
        0
176
     1
 90
        0
176
     1
290
     0
176
     1
 90
       13
176
     1
 40
0.0
176
     1
 90
        0
176
     1
290
     0
176
     1
290
     1
176
     1
290
     1
176
     1
290
     0
176
     1
290
     0
176
     1
290
     0
176
     1
290
     0
176
     1
290
     0
176
     1
290
     0
176
     1
 90
       50
176
     1
 40
0.0
176
     1
 40
1.0
176
     1
 90
        0
176
     1
 62
    18
420
        0
176
     1
 90
       50
176
     1
 90
        3
176
     1
 62
     5
420
      255
176
     1
290
     0
176
     1
 90
       50
176
     1
 90
       50
176
     1
 90
       50
176
     1
290
     0
176
     1
 90
       50
176
     1
 62
   256
176
     0
 40
1.0
176
     0
 90
        2
176
     1
  1
strokes_ogs.tif
176
     1
290
     0
176
     1
 40
1.0
176
     1
 40
1.0
176
     1
  0
VISUALSTYLE
  5
2B
102
{ACAD_REACTORS
330
29
102
}
330
29
100
AcDbVisualStyle
  2
FlatWithEdges
 70
     1
177
     3
291
     1
 70
    58
 90
        2
176
     1
 90
        1
176
     1
 90
        1
176
     1
 90
        2
176
     1
 40
0.6
176
     1
 40
30.0
176
     1
 62
     7
420
 16777215
176
     1
 90
        1
176
     1
 90
        0
176
     1
 62
     7
176
     1
 62
   257
176
     1
 90
        1
176
     1
 90
        1
176
     1
 40
1.0
176
     1
 90
        0
176
     1
 62
   257
176
     1
 40
1.0
176
     1
 90
        1
176
     1
 90
        6
176
     1
 90
        2
176
     1
 62
     7
176
     1
 90
        5
176
     1
 90
        0
176
     1
 90
        0
176
     1
290
     0
176
     1
 90
       13
176
     1
 40
0.0
176
     1
 90
        0
176
     1
290
     0
176
     1
290
     1
176
     1
290
     1
176
     1
290
     0
176
     1
290
     0
176
     1
290
     0
176
     1
290
     0
176
     1
290
     0
176
     1
290
     0
176
     1
 90
       50
176
     1
 40
0.0
176
     1
 40
1.0
176
     1
 90
        0
176
     1
 62
    18
420
        0
176
     1
 90
       50
176
     1
 90
        3
176
     1
 62
     5
420
      255
176
     1
290
     0
176
     1
 90
       50
176
     1
 90
       50
176
     1
 90
       50
176
     1
290
     0
176
     1
 90
       50
176
     1
 62
   256
176
     0
 40
1.0
176
     0
 90
        2
176
     1
  1
strokes_ogs.tif
176
     1
290
     0
176
     1
 40
1.0
176
     1
 40
1.0
176
     1
  0
VISUALSTYLE
  5
2C
102
{ACAD_REACTORS
330
29
102
}
330
29
100
AcDbVisualStyle
  2
Gouraud
 70
     2
177
     3
291
     1
 70
    58
 90
        2
176
     1
 90
        2
176
     1
 90
        1
176
     1
 90
        2
176
     1
 40
0.6
176
     1
 40
30.0
176
     1
 62
     7
420
 16777215
176
     1
 90
        0
176
     1
 90
        0
176
     1
 62
     7
176
     1
 62
   257
176
     1
 90
        1
176
     1
 90
        1
176
     1
 40
1.0
176
     1
 90
        0
176
     1
 62
     7
176
     1
 40
1.0
176
     1
 90
        1
176
     1
 90
        6
176
     1
 90
        2
176
     1
 62
     7
176
     1
 90
        5
176
     1
 90
        0
176
     1
 90
        0
176
     1
290
     0
176
     1
 90
       13
176
     1
 40
0.0
176
     1
 90
        0
176
     1
290
     0
176
     1
290
     1
176
     1
290
     1
176
     1
290
     0
176
     1
290
     0
176
     1
290
     0
176
     1
290
     0
176
     1
290
     0
176
     1
290
     0
176
     1
 90
       50
176
     1
 40
0.0
176
     1
 40
1.0
176
     1
 90
        0
176
     1
 62
    18
420
        0
176
     1
 90
       50
176
     1
 90
        3
176
     1
 62
     5
420
      255
176
     1
290
     0
176
     1
 90
       50
176
     1
 90
       50
176
     1
 90
       50
176
     1
290
     0
176
     1
 90
       50
176
     1
 62
   256
176
     0
 40
1.0
176
     0
 90
        2
176
     1
  1
strokes_ogs.tif
176
     1
290
     0
176
     1
 40
1.0
176
     1
 40
1.0
176
     1
  0
VISUALSTYLE
  5
2D
102
{ACAD_REACTORS
330
29
102
}
330
29
100
AcDbVisualStyle
  2
GouraudWithEdges
 70
     3
177
     3
291
     1
 70
    58
 90
        2
176
     1
 90
        2
176
     1
 90
        1
176
     1
 90
        2
176
     1
 40
0.6
176
     1
 40
30.0
176
     1
 62
     7
420
 16777215
176
     1
 90
        1
176
     1
 90
        0
176
     1
 62
     7
176
     1
 62
   257
176
     1
 90
        1
176
     1
 90
        1
176
     1
 40
1.0
176
     1
 90
        0
176
     1
 62
   257
176
     1
 40
1.0
176
     1
 90
        1
176
     1
 90
        6
176
     1
 90
        2
176
     1
 62
     7
176
     1
 90
        5
176
     1
 90
        0
176
     1
 90
        0
176
     1
290
     0
176
     1
 90
       13
176
     1
 40
0.0
176
     1
 90
        0
176
     1
290
     0
176
     1
290
     1
176
     1
290
     1
176
     1
290
     0
176
     1
290
     0
176
     1
290
     0
176
     1
290
     0
176
     1
290
     0
176
     1
290
     0
176
     1
 90
       50
176
     1
 40
0.0
176
     1
 40
1.0
176
     1
 90
        0
176
     1
 62
    18
420
        0
176
     1
 90
       50
176
     1
 90
        3
176
     1
 62
     5
420
      255
176
     1
290
     0
176
     1
 90
       50
176
     1
 90
       50
176
     1
 90
       50
176
     1
290
     0
176
     1
 90
       50
176
     1
 62
   256
176
     0
 40
1.0
176
     0
 90
        2
176
     1
  1
strokes_ogs.tif
176
     1
290
     0
176
     1
 40
1.0
176
     1
 40
1.0
176
     1
  0
VISUALSTYLE
  5
31
102
{ACAD_REACTORS
330
29
102
}
330
29
100
AcDbVisualStyle
  2
Hidden
 70
     6
177
     3
291
     0
 70
    58
 90
        1
176
     1
 90
        2
176
     1
 90
        2
176
     1
 90
        0
176
     1
 40
0.6
176
     1
 40
30.0
176
     1
 62
     7
420
 16777215
176
     1
 90
        2
176
     1
 90
        2
176
     1
 62
     7
176
     1
 62
   257
176
     1
 90
        2
176
     1
 90
        1
176
     1
 40
40.0
176
     1
 90
        0
176
     1
 62
   257
176
     1
 40
1.0
176
     1
 90
        1
176
     1
 90
        6
176
     1
 90
        2
176
     1
 62
     7
176
     1
 90
        3
176
     1
 90
        0
176
     1
 90
        0
176
     1
290
     0
176
     1
 90
        1
176
     1
 40
0.0
176
     1
 90
        0
176
     1
290
     0
176
     1
290
     1
176
     1
290
     1
176
     1
290
     0
176
     1
290
     0
176
     1
290
     0
176
     1
290
     0
176
     1
290
     0
176
     1
290
     0
176
     1
 90
       50
176
     1
 40
0.0
176
     1
 40
1.0
176
     1
 90
        0
176
     1
 62
    18
420
        0
176
     1
 90
       50
176
     1
 90
        3
176
     1
 62
     5
420
      255
176
     1
290
     0
176
     1
 90
       50
176
     1
 90
       50
176
     1
 90
       50
176
     1
290
     0
176
     1
 90
       50
176
     1
 62
   256
176
     0
 40
1.0
176
     0
 90
        2
176
     1
  1
strokes_ogs.tif
176
     1
290
     0
176
     1
 40
1.0
176
     1
 40
1.0
176
     1
  0
VISUALSTYLE
  5
3F
102
{ACAD_REACTORS
330
29
102
}
330
29
100
AcDbVisualStyle
  2
JitterOff
 70
    20
177
     3
291
     1
 70
    58
 90
        2
176
     0
 90
        2
176
     0
 90
        0
176
     0
 90
        0
176
     0
 40
0.6
176
     0
 40
30.0
176
     0
 62
     7
420
 16777215
176
     0
 90
        1
176
     0
 90
        4
176
     0
 62
     7
176
     0
 62
   257
176
     0
 90
        1
176
     0
 90
        1
176
     0
 40
1.0
176
     0
 90
       10
176
     2
 62
     7
176
     0
 40
1.0
176
     0
 90
        1
176
     0
 90
        6
176
     0
 90
        2
176
     0
 62
     7
176
     0
 90
        5
176
     0
 90
        0
176
     0
 90
        0
176
     0
290
     0
176
     0
 90
        1
176
     0
 40
0.0
176
     0
 90
        0
176
     0
290
     0
176
     0
290
     1
176
     0
290
     1
176
     0
290
     0
176
     0
290
     0
176
     0
290
     0
176
     0
290
     0
176
     0
290
     0
176
     0
290
     0
176
     0
 90
       50
176
     0
 40
0.0
176
     0
 40
1.0
176
     0
 90
        0
176
     0
 62
    18
420
        0
176
     0
 90
       50
176
     0
 90
        3
176
     0
 62
     5
420
      255
176
     0
290
     0
176
     0
 90
       50
176
     0
 90
       50
176
     0
 90
       50
176
     0
290
     0
176
     0
 90
       50
176
     0
 62
   256
176
     0
 40
1.0
176
     0
 90
        2
176
     0
  1
strokes_ogs.tif
176
     0
290
     0
176
     0
 40
1.0
176
     0
 40
1.0
176
     0
  0
VISUALSTYLE
  5
37
102
{ACAD_REACTORS
330
29
102
}
330
29
100
AcDbVisualStyle
  2
Linepattern
 70
    14
177
     3
291
     1
 70
    58
 90
        2
176
     1
 90
        2
176
     1
 90
        0
176
     1
 90
        0
176
     1
 40
0.6
176
     1
 40
30.0
176
     1
 62
     7
420
 16777215
176
     1
 90
        1
176
     1
 90
        4
176
     1
 62
     7
176
     1
 62
   257
176
     1
 90
        7
176
     1
 90
        7
176
     1
 40
1.0
176
     1
 90
        8
176
     1
 62
     7
176
     1
 40
1.0
176
     1
 90
        1
176
     1
 90
        6
176
     1
 90
        2
176
     1
 62
     7
176
     1
 90
        5
176
     1
 90
        0
176
     1
 90
        0
176
     1
290
     0
176
     1
 90
        1
176
     1
 40
0.0
176
     1
 90
        0
176
     1
290
     0
176
     1
290
     1
176
     1
290
     1
176
     1
290
     0
176
     1
290
     0
176
     1
290
     0
176
     1
290
     0
176
     1
290
     0
176
     1
290
     0
176
     1
 90
       50
176
     1
 40
0.0
176
     1
 40
1.0
176
     1
 90
        0
176
     1
 62
    18
420
        0
176
     1
 90
       50
176
     1
 90
        3
176
     1
 62
     5
420
      255
176
     1
290
     0
176
     1
 90
       50
176
     1
 90
       50
176
     1
 90
       50
176
     1
290
     0
176
     1
 90
       50
176
     1
 62
   256
176
     0
 40
1.0
176
     0
 90
        2
176
     1
  1
strokes_ogs.tif
176
     1
290
     0
176
     1
 40
1.0
176
     1
 40
1.0
176
     1
  0
VISUALSTYLE
  5
40
102
{ACAD_REACTORS
330
29
102
}
330
29
100
AcDbVisualStyle
  2
OverhangOff
 70
    21
177
     3
291
     1
 70
    58
 90
        2
176
     0
 90
        2
176
     0
 90
        0
176
     0
 90
        0
176
     0
 40
0.6
176
     0
 40
30.0
176
     0
 62
     7
420
 16777215
176
     0
 90
        1
176
     0
 90
        4
176
     0
 62
     7
176
     0
 62
   257
176
     0
 90
        1
176
     0
 90
        1
176
     0
 40
1.0
176
     0
 90
        9
176
     2
 62
     7
176
     0
 40
1.0
176
     0
 90
        1
176
     0
 90
        6
176
     0
 90
        2
176
     0
 62
     7
176
     0
 90
        5
176
     0
 90
        0
176
     0
 90
        0
176
     0
290
     0
176
     0
 90
        1
176
     0
 40
0.0
176
     0
 90
        0
176
     0
290
     0
176
     0
290
     1
176
     0
290
     1
176
     0
290
     0
176
     0
290
     0
176
     0
290
     0
176
     0
290
     0
176
     0
290
     0
176
     0
290
     0
176
     0
 90
       50
176
     0
 40
0.0
176
     0
 40
1.0
176
     0
 90
        0
176
     0
 62
    18
420
        0
176
     0
 90
       50
176
     0
 90
        3
176
     0
 62
     5
420
      255
176
     0
290
     0
176
     0
 90
       50
176
     0
 90
       50
176
     0
 90
       50
176
     0
290
     0
176
     0
 90
       50
176
     0
 62
   256
176
     0
 40
1.0
176
     0
 90
        2
176
     0
  1
strokes_ogs.tif
176
     0
290
     0
176
     0
 40
1.0
176
     0
 40
1.0
176
     0
  0
VISUALSTYLE
  5
33
102
{ACAD_REACTORS
330
29
102
}
330
29
100
AcDbVisualStyle
  2
Realistic
 70
     8
177
     3
291
     0
 70
    58
 90
        2
176
     1
 90
        3
176
     1
 90
        0
176
     1
 90
        2
176
     1
 40
0.6
176
     1
 40
30.0
176
     1
 62
     7
420
 16777215
176
     1
 90
        0
176
     1
 90
        0
176
     1
 62
     7
176
     1
 62
   257
176
     1
 90
        1
176
     1
 90
        1
176
     1
 40
1.0
176
     1
 90
        8
176
     1
 62
   257
176
     1
 40
1.0
176
     1
 90
        1
176
     1
 90
        6
176
     1
 90
        2
176
     1
 62
     7
176
     1
 90
        3
176
     1
 90
        0
176
     1
 90
        0
176
     1
290
     0
176
     1
 90
       13
176
     1
 40
0.0
176
     1
 90
        0
176
     1
290
     0
176
     1
290
     1
176
     1
290
     1
176
     1
290
     0
176
     1
290
     0
176
     1
290
     0
176
     1
290
     0
176
     1
290
     0
176
     1
290
     0
176
     1
 90
       50
176
     1
 40
0.0
176
     1
 40
1.0
176
     1
 90
        0
176
     1
 62
    18
420
        0
176
     1
 90
       50
176
     1
 90
        3
176
     1
 62
     5
420
      255
176
     1
290
     0
176
     1
 90
       50
176
     1
 90
       50
176
     1
 90
       50
176
     1
290
     0
176
     1
 90
       50
176
     1
 62
   256
176
     0
 40
1.0
176
     0
 90
        2
176
     1
  1
strokes_ogs.tif
176
     1
290
     0
176
     1
 40
1.0
176
     1
 40
1.0
176
     1
  0
VISUALSTYLE
  5
3E
102
{ACAD_REACTORS
330
29
102
}
330
29
100
AcDbVisualStyle
  2
Shaded
 70
    27
177
     3
291
     0
 70
    58
 90
        2
176
     1
 90
        2
176
     1
 90
        1
176
     1
 90
        2
176
     1
 40
0.6
176
     1
 40
30.0
176
     1
 62
     7
420
 16777215
176
     1
 90
        0
176
     1
 90
        4
176
     1
 62
     7
176
     1
 62
   257
176
     1
 90
        1
176
     1
 90
        1
176
     1
 40
1.0
176
     1
 90
        8
176
     1
 62
   257
176
     1
 40
1.0
176
     1
 90
        1
176
     1
 90
        6
176
     1
 90
        2
176
     1
 62
     8
420
  7895160
176
     1
 90
        3
176
     1
 90
        0
176
     1
 90
        0
176
     1
290
     0
176
     1
 90
        5
176
     1
 40
0.0
176
     1
 90
        0
176
     1
290
     0
176
     1
290
     1
176
     1
290
     1
176
     1
290
     0
176
     1
290
     0
176
     1
290
     0
176
     1
290
     0
176
     1
290
     0
176
     1
290
     0
176
     1
 90
       50
176
     1
 40
0.0
176
     1
 40
1.0
176
     1
 90
        0
176
     1
 62
    18
420
        0
176
     1
 90
       50
176
     1
 90
        3
176
     1
 62
     5
420
      255
176
     1
290
     0
176
     1
 90
       50
176
     1
 90
       50
176
     1
 90
       50
176
     1
290
     0
176
     1
 90
       50
176
     1
 62
   256
176
     0
 40
1.0
176
     0
 90
        2
176
     1
  1
strokes_ogs.tif
176
     1
290
     0
176
     1
 40
1.0
176
     1
 40
1.0
176
     1
  0
VISUALSTYLE
  5
3D
102
{ACAD_REACTORS
330
29
102
}
330
29
100
AcDbVisualStyle
  2
Shaded with edges
 70
    26
177
     3
291
     0
 70
    58
 90
        2
176
     1
 90
        2
176
     1
 90
        1
176
     1
 90
        2
176
     1
 40
0.6
176
     1
 40
30.0
176
     1
 62
     7
420
 16777215
176
     1
 90
        1
176
     1
 90
       10
176
     1
 62
     7
176
     1
 62
   257
176
     1
 90
        2
176
     1
 90
        1
176
     1
 40
1.0
176
     1
 90
        8
176
     1
 62
   257
176
     1
 40
1.0
176
     1
 90
        1
176
     1
 90
        6
176
     1
 90
        2
176
     1
 62
     7
176
     1
 90
        3
176
     1
 90
        0
176
     1
 90
        0
176
     1
290
     0
176
     1
 90
        5
176
     1
 40
0.0
176
     1
 90
        0
176
     1
290
     0
176
     1
290
     1
176
     1
290
     1
176
     1
290
     0
176
     1
290
     0
176
     1
290
     0
176
     1
290
     0
176
     1
290
     0
176
     1
290
     0
176
     1
 90
       50
176
     1
 40
0.0
176
     1
 40
1.0
176
     1
 90
        0
176
     1
 62
    18
420
        0
176
     1
 90
       50
176
     1
 90
        3
176
     1
 62
     5
420
      255
176
     1
290
     0
176
     1
 90
       50
176
     1
 90
       50
176
     1
 90
       50
176
     1
290
     0
176
     1
 90
       50
176
     1
 62
   256
176
     0
 40
1.0
176
     0
 90
        2
176
     1
  1
strokes_ogs.tif
176
     1
290
     0
176
     1
 40
1.0
176
     1
 40
1.0
176
     1
  0
VISUALSTYLE
  5
3A
102
{ACAD_REACTORS
330
29
102
}
330
29
100
AcDbVisualStyle
  2
Shades of Gray
 70
    23
177
     3
291
     0
 70
    58
 90
        2
176
     1
 90
        2
176
     1
 90
        3
176
     1
 90
        0
176
     1
 40
0.6
176
     1
 40
30.0
176
     1
 62
     7
420
 16777215
176
     1
 90
        2
176
     1
 90
        2
176
     1
 62
     7
176
     1
 62
     7
176
     1
 90
        1
176
     1
 90
        1
176
     1
 40
40.0
176
     1
 90
        8
176
     1
 62
     7
176
     1
 40
1.0
176
     1
 90
        1
176
     1
 90
        6
176
     1
 90
        2
176
     1
 62
     7
176
     1
 90
        3
176
     1
 90
        0
176
     1
 90
        0
176
     1
290
     0
176
     1
 90
        1
176
     1
 40
0.0
176
     1
 90
        0
176
     1
290
     0
176
     1
290
     1
176
     1
290
     1
176
     1
290
     0
176
     1
290
     0
176
     1
290
     0
176
     1
290
     0
176
     1
290
     0
176
     1
290
     0
176
     1
 90
       50
176
     1
 40
0.0
176
     1
 40
1.0
176
     1
 90
        0
176
     1
 62
    18
420
        0
176
     1
 90
       50
176
     1
 90
        3
176
     1
 62
     5
420
      255
176
     1
290
     0
176
     1
 90
       50
176
     1
 90
       50
176
     1
 90
       50
176
     1
290
     0
176
     1
 90
       50
176
     1
 62
   256
176
     0
 40
1.0
176
     0
 90
        2
176
     1
  1
strokes_ogs.tif
176
     1
290
     0
176
     1
 40
1.0
176
     1
 40
1.0
176
     1
  0
VISUALSTYLE
  5
3B
102
{ACAD_REACTORS
330
29
102
}
330
29
100
AcDbVisualStyle
  2
Sketchy
 70
    24
177
     3
291
     0
 70
    58
 90
        1
176
     1
 90
        2
176
     1
 90
        2
176
     1
 90
        0
176
     1
 40
0.6
176
     1
 40
30.0
176
     1
 62
     7
420
 16777215
176
     1
 90
        2
176
     1
 90
        2
176
     1
 62
     7
176
     1
 62
     7
176
     1
 90
        1
176
     1
 90
        1
176
     1
 40
40.0
176
     1
 90
       11
176
     1
 62
     7
176
     1
 40
1.0
176
     1
 90
        1
176
     1
 90
        6
176
     1
 90
        2
176
     1
 62
     7
176
     1
 90
        6
176
     1
 90
        0
176
     1
 90
        0
176
     1
290
     0
176
     1
 90
        1
176
     1
 40
0.0
176
     1
 90
        0
176
     1
290
     0
176
     1
290
     1
176
     1
290
     1
176
     1
290
     0
176
     1
290
     0
176
     1
290
     0
176
     1
290
     0
176
     1
290
     0
176
     1
290
     0
176
     1
 90
       50
176
     1
 40
0.0
176
     1
 40
1.0
176
     1
 90
        0
176
     1
 62
    18
420
        0
176
     1
 90
       50
176
     1
 90
        3
176
     1
 62
     5
420
      255
176
     1
290
     0
176
     1
 90
       50
176
     1
 90
       50
176
     1
 90
       50
176
     1
290
     0
176
     1
 90
       50
176
     1
 62
   256
176
     0
 40
1.0
176
     0
 90
        2
176
     1
  1
strokes_ogs.tif
176
     1
290
     0
176
     1
 40
1.0
176
     1
 40
1.0
176
     1
  0
VISUALSTYLE
  5
36
102
{ACAD_REACTORS
330
29
102
}
330
29
100
AcDbVisualStyle
  2
Thicken
 70
    13
177
     3
291
     1
 70
    58
 90
        2
176
     1
 90
        2
176
     1
 90
        0
176
     1
 90
        0
176
     1
 40
0.6
176
     1
 40
30.0
176
     1
 62
     7
420
 16777215
176
     1
 90
        1
176
     1
 90
        4
176
     1
 62
     7
176
     1
 62
   257
176
     1
 90
        1
176
     1
 90
        1
176
     1
 40
1.0
176
     1
 90
       12
176
     1
 62
     7
176
     1
 40
1.0
176
     1
 90
        1
176
     1
 90
        6
176
     1
 90
        2
176
     1
 62
     7
176
     1
 90
        5
176
     1
 90
        0
176
     1
 90
        0
176
     1
290
     0
176
     1
 90
        1
176
     1
 40
0.0
176
     1
 90
        0
176
     1
290
     0
176
     1
290
     1
176
     1
290
     1
176
     1
290
     0
176
     1
290
     0
176
     1
290
     0
176
     1
290
     0
176
     1
290
     0
176
     1
290
     0
176
     1
 90
       50
176
     1
 40
0.0
176
     1
 40
1.0
176
     1
 90
        0
176
     1
 62
    18
420
        0
176
     1
 90
       50
176
     1
 90
        3
176
     1
 62
     5
420
      255
176
     1
290
     0
176
     1
 90
       50
176
     1
 90
       50
176
     1
 90
       50
176
     1
290
     0
176
     1
 90
       50
176
     1
 62
   256
176
     0
 40
1.0
176
     0
 90
        2
176
     1
  1
strokes_ogs.tif
176
     1
290
     0
176
     1
 40
1.0
176
     1
 40
1.0
176
     1
  0
VISUALSTYLE
  5
30
102
{ACAD_REACTORS
330
29
102
}
330
29
100
AcDbVisualStyle
  2
Wireframe
 70
     5
177
     3
291
     0
 70
    58
 90
        0
176
     1
 90
        2
176
     1
 90
        0
176
     1
 90
        0
176
     1
 40
0.6
176
     1
 40
30.0
176
     1
 62
     7
420
 16777215
176
     1
 90
        1
176
     1
 90
        4
176
     1
 62
     7
176
     1
 62
   257
176
     1
 90
        1
176
     1
 90
        1
176
     1
 40
1.0
176
     1
 90
        0
176
     1
 62
   257
176
     1
 40
1.0
176
     1
 90
        1
176
     1
 90
        6
176
     1
 90
        2
176
     1
 62
     7
176
     1
 90
        3
176
     1
 90
        0
176
     1
 90
        0
176
     1
290
     0
176
     1
 90
        1
176
     1
 40
0.0
176
     1
 90
        0
176
     1
290
     0
176
     1
290
     1
176
     1
290
     1
176
     1
290
     0
176
     1
290
     0
176
     1
290
     0
176
     1
290
     0
176
     1
290
     0
176
     1
290
     0
176
     1
 90
       50
176
     1
 40
0.0
176
     1
 40
1.0
176
     1
 90
        0
176
     1
 62
    18
420
        0
176
     1
 90
       50
176
     1
 90
        3
176
     1
 62
     5
420
      255
176
     1
290
     0
176
     1
 90
       50
176
     1
 90
       50
176
     1
 90
       50
176
     1
290
     0
176
     1
 90
       50
176
     1
 62
   256
176
     0
 40
1.0
176
     0
 90
        2
176
     1
  1
strokes_ogs.tif
176
     1
290
     0
176
     1
 40
1.0
176
     1
 40
1.0
176
     1
  0
VISUALSTYLE
  5
3C
102
{ACAD_REACTORS
330
29
102
}
330
29
100
AcDbVisualStyle
  2
X-Ray
 70
    25
177
     3
291
     0
 70
    58
 90
        2
176
     1
 90
        2
176
     1
 90
        1
176
     1
 90
        1
176
     1
 40
0.5
176
     1
 40
30.0
176
     1
 62
     7
420
 16777215
176
     1
 90
        1
176
     1
 90
        0
176
     1
 62
     7
176
     1
 62
   257
176
     1
 90
        1
176
     1
 90
        1
176
     1
 40
1.0
176
     1
 90
        8
176
     1
 62
     7
176
     1
 40
1.0
176
     1
 90
        1
176
     1
 90
        6
176
     1
 90
        2
176
     1
 62
     7
176
     1
 90
        3
176
     1
 90
        0
176
     1
 90
        0
176
     1
290
     0
176
     1
 90
       13
176
     1
 40
0.0
176
     1
 90
        0
176
     1
290
     0
176
     1
290
     1
176
     1
290
     1
176
     1
290
     0
176
     1
290
     0
176
     1
290
     0
176
     1
290
     0
176
     1
290
     0
176
     1
290
     0
176
     1
 90
       50
176
     1
 40
0.0
176
     1
 40
1.0
176
     1
 90
        0
176
     1
 62
    18
420
        0
176
     1
 90
       50
176
     1
 90
        3
176
     1
 62
     5
420
      255
176
     1
290
     0
176
     1
 90
       50
176
     1
 90
       50
176
     1
 90
       50
176
     1
290
     0
176
     1
 90
       50
176
     1
 62
   256
176
     0
 40
1.0
176
     0
 90
        2
176
     1
  1
strokes_ogs.tif
176
     1
290
     0
176
     1
 40
1.0
176
     1
 40
1.0
176
     1
  0
DICTIONARYVAR
  5
BC
102
{ACAD_REACTORS
330
B7
102
}
330
B7
100
DictionaryVariables
280
     0
  1
1:1
  0
DICTIONARYVAR
  5
B9
102
{ACAD_REACTORS
330
B7
102
}
330
B7
100
DictionaryVariables
280
     0
  1
STANDARD
  0
DICTIONARYVAR
  5
B8
102
{ACAD_REACTORS
330
B7
102
}
330
B7
100
DictionaryVariables
280
     0
  1
STANDARD
  0
DICTIONARYVAR
  5
BA
102
{ACAD_REACTORS
330
B7
102
}
330
B7
100
DictionaryVariables
280
     0
  1
Imperial24
  0
DICTIONARYVAR
  5
BB
102
{ACAD_REACTORS
330
B7
102
}
330
B7
100
DictionaryVariables
280
     0
  1
Imperial24
  0
XRECORD
  5
AF
102
{ACAD_REACTORS
330
AD
102
}
330
AD
100
AcDbXrecord
280
     1
  1
BUILDING_ID
  1
Toilet_Seat-American_Standard-Aquawash-5900A
  1
FLOOR_ID
  1
35
  0
XRECORD
  5
AE
102
{ACAD_REACTORS
330
AD
102
}
330
AD
100
AcDbXrecord
280
     1
  1
-2001350
  1
Specialty Equipment
  0
DICTIONARY
  5
3E8
330
6B
100
AcDbDictionary
280
     1
281
     1
  3
ACAD_XREC_ROUNDTRIP
360
3E9
  0
DICTIONARY
  5
3DE
330
73
100
AcDbDictionary
280
     1
281
     1
  0
DICTIONARY
  5
1A
330
19
100
AcDbDictionary
280
     1
281
     1
  3
BUMPTILE
360
1C
  3
DIFFUSETILE
360
1B
  3
OPACITYTILE
360
1F
  3
REFLECTIONTILE
360
1E
  3
REFRACTIONTILE
360
20
  3
SPECULARTILE
360
1D
  0
DICTIONARY
  5
12
330
11
100
AcDbDictionary
280
     1
281
     1
  3
BUMPTILE
360
14
  3
DIFFUSETILE
360
13
  3
OPACITYTILE
360
17
  3
REFLECTIONTILE
360
16
  3
REFRACTIONTILE
360
18
  3
SPECULARTILE
360
15
  0
DICTIONARY
  5
22
330
21
100
AcDbDictionary
280
     1
281
     1
  3
BUMPTILE
360
24
  3
DIFFUSETILE
360
23
  3
OPACITYTILE
360
27
  3
REFLECTIONTILE
360
26
  3
REFRACTIONTILE
360
28
  3
SPECULARTILE
360
25
  0
DICTIONARY
  5
3E6
330
69
100
AcDbDictionary
280
     1
281
     1
  3
ACAD_XREC_ROUNDTRIP
360
3E7
  0
DICTIONARY
  5
3E4
330
65
100
AcDbDictionary
280
     1
281
     1
  3
ACAD_ROUNDTRIP_2008_TABLESTYLE_CELLSTYLEMAP
360
3E5
  0
XRECORD
  5
3E9
102
{ACAD_REACTORS
330
3E8
102
}
330
3E8
100
AcDbXrecord
280
     1
102
DISPLAYNAME
  1
Imperial24
102
FLAGS
 90
        0
  0
XRECORD
  5
1C
102
{ACAD_REACTORS
330
1A
102
}
330
1A
100
AcDbXrecord
280
     1
270
     1
271
     1
  0
XRECORD
  5
1B
102
{ACAD_REACTORS
330
1A
102
}
330
1A
100
AcDbXrecord
280
     1
270
     1
271
     1
  0
XRECORD
  5
1F
102
{ACAD_REACTORS
330
1A
102
}
330
1A
100
AcDbXrecord
280
     1
270
     1
271
     1
  0
XRECORD
  5
1E
102
{ACAD_REACTORS
330
1A
102
}
330
1A
100
AcDbXrecord
280
     1
270
     1
271
     1
  0
XRECORD
  5
20
102
{ACAD_REACTORS
330
1A
102
}
330
1A
100
AcDbXrecord
280
     1
270
     1
271
     1
  0
XRECORD
  5
1D
102
{ACAD_REACTORS
330
1A
102
}
330
1A
100
AcDbXrecord
280
     1
270
     1
271
     1
  0
XRECORD
  5
14
102
{ACAD_REACTORS
330
12
102
}
330
12
100
AcDbXrecord
280
     1
270
     1
271
     1
  0
XRECORD
  5
13
102
{ACAD_REACTORS
330
12
102
}
330
12
100
AcDbXrecord
280
     1
270
     1
271
     1
  0
XRECORD
  5
17
102
{ACAD_REACTORS
330
12
102
}
330
12
100
AcDbXrecord
280
     1
270
     1
271
     1
  0
XRECORD
  5
16
102
{ACAD_REACTORS
330
12
102
}
330
12
100
AcDbXrecord
280
     1
270
     1
271
     1
  0
XRECORD
  5
18
102
{ACAD_REACTORS
330
12
102
}
330
12
100
AcDbXrecord
280
     1
270
     1
271
     1
  0
XRECORD
  5
15
102
{ACAD_REACTORS
330
12
102
}
330
12
100
AcDbXrecord
280
     1
270
     1
271
     1
  0
XRECORD
  5
24
102
{ACAD_REACTORS
330
22
102
}
330
22
100
AcDbXrecord
280
     1
270
     1
271
     1
  0
XRECORD
  5
23
102
{ACAD_REACTORS
330
22
102
}
330
22
100
AcDbXrecord
280
     1
270
     1
271
     1
  0
XRECORD
  5
27
102
{ACAD_REACTORS
330
22
102
}
330
22
100
AcDbXrecord
280
     1
270
     1
271
     1
  0
XRECORD
  5
26
102
{ACAD_REACTORS
330
22
102
}
330
22
100
AcDbXrecord
280
     1
270
     1
271
     1
  0
XRECORD
  5
28
102
{ACAD_REACTORS
330
22
102
}
330
22
100
AcDbXrecord
280
     1
270
     1
271
     1
  0
XRECORD
  5
25
102
{ACAD_REACTORS
330
22
102
}
330
22
100
AcDbXrecord
280
     1
270
     1
271
     1
  0
XRECORD
  5
3E7
102
{ACAD_REACTORS
330
3E6
102
}
330
3E6
100
AcDbXrecord
280
     1
102
DISPLAYNAME
  1
Imperial24
102
FLAGS
 90
        0
  0
CELLSTYLEMAP
  5
3E5
102
{ACAD_REACTORS
330
3E4
102
}
330
3E4
100
AcDbCellStyleMap
 90
        3
300
CELLSTYLE
  1
TABLEFORMAT_BEGIN
 90
        5
170
     1
 91
        0
 92
    32768
 62
   257
 93
        1
300
CONTENTFORMAT
  1
CONTENTFORMAT_BEGIN
 90
        0
 91
        0
 92
      512
 93
        0
300

 40
0.0
140
1.0
 94
        5
 62
     0
340
55
144
0.25
309
CONTENTFORMAT_END
171
     0
 94
        0
309
TABLEFORMAT_END
  1
CELLSTYLE_BEGIN
 90
        1
 91
        1
300
_TITLE
309
CELLSTYLE_END
300
CELLSTYLE
  1
TABLEFORMAT_BEGIN
 90
        5
170
     1
 91
        0
 92
        0
 62
   257
 93
        1
300
CONTENTFORMAT
  1
CONTENTFORMAT_BEGIN
 90
        0
 91
        0
 92
      512
 93
        0
300

 40
0.0
140
1.0
 94
        5
 62
     0
340
55
144
0.18
309
CONTENTFORMAT_END
171
     0
 94
        0
309
TABLEFORMAT_END
  1
CELLSTYLE_BEGIN
 90
        2
 91
        1
300
_HEADER
309
CELLSTYLE_END
300
CELLSTYLE
  1
TABLEFORMAT_BEGIN
 90
        5
170
     1
 91
        0
 92
        0
 62
   257
 93
        1
300
CONTENTFORMAT
  1
CONTENTFORMAT_BEGIN
 90
        0
 91
        0
 92
      512
 93
        0
300

 40
0.0
140
1.0
 94
        2
 62
     0
340
55
144
0.18
309
CONTENTFORMAT_END
171
     0
 94
        0
309
TABLEFORMAT_END
  1
CELLSTYLE_BEGIN
 90
        3
 91
        2
300
_DATA
309
CELLSTYLE_END
  0
ENDSEC
  0
SECTION
  2
ACDSDATA
 70
     2
 71
     6
  0
ACDSSCHEMA
 90
        0
  1
AcDb_Thumbnail_Schema
  2
AcDbDs::ID
280
    10
 91
        8
  2
Thumbnail_Data
280
    15
 91
        0
101
ACDSRECORD
 95
        0
 90
        1
  2
AcDbDs::TreatedAsObjectData
280
     1
291
     1
101
ACDSRECORD
 95
        0
 90
        2
  2
AcDbDs::Legacy
280
     1
291
     1
101
ACDSRECORD
  1
AcDbDs::ID
 90
        3
  2
AcDs:Indexable
280
     1
291
     1
101
ACDSRECORD
  1
AcDbDs::ID
 90
        4
  2
AcDbDs::HandleAttribute
280
     7
282
     1
  0
ACDSSCHEMA
 90
        1
  1
AcDbDs::TreatedAsObjectDataSchema
  2
AcDbDs::TreatedAsObjectData
280
     1
 91
        0
  0
ACDSSCHEMA
 90
        2
  1
AcDbDs::LegacySchema
  2
AcDbDs::Legacy
280
     1
 91
        0
  0
ACDSSCHEMA
 90
        3
  1
AcDbDs::IndexedPropertySchema
  2
AcDs:Indexable
280
     1
 91
        0
  0
ACDSSCHEMA
 90
        4
  1
AcDbDs::HandleAttributeSchema
  2
AcDbDs::HandleAttribute
280
     7
 91
        1
284
     1
  0
ACDSRECORD
 90
        0
  2
AcDbDs::ID
280
    10
320
73
  2
Thumbnail_Data
280
    15
 94
     1047
310
89504E470D0A1A0A0000000D49484452000001000000006D080300000079B14F6400000300504C5445212830000000C8C8C80000000000000000000000000000000000000000000000000000330000660000990000CC0000FF0033000033330033660033990033CC0033FF0066000066330066660066990066CC0066FF0099
310
000099330099660099990099CC0099FF00CC0000CC3300CC6600CC9900CCCC00CCFF00FF0000FF3300FF6600FF9900FFCC00FFFF3300003300333300663300993300CC3300FF3333003333333333663333993333CC3333FF3366003366333366663366993366CC3366FF3399003399333399663399993399CC3399FF33CC00
310
33CC3333CC6633CC9933CCCC33CCFF33FF0033FF3333FF6633FF9933FFCC33FFFF6600006600336600666600996600CC6600FF6633006633336633666633996633CC6633FF6666006666336666666666996666CC6666FF6699006699336699666699996699CC6699FF66CC0066CC3366CC6666CC9966CCCC66CCFF66FF0066
310
FF3366FF6666FF9966FFCC66FFFF9900009900339900669900999900CC9900FF9933009933339933669933999933CC9933FF9966009966339966669966999966CC9966FF9999009999339999669999999999CC9999FF99CC0099CC3399CC6699CC9999CCCC99CCFF99FF0099FF3399FF6699FF9999FFCC99FFFFCC0000CC00
310
33CC0066CC0099CC00CCCC00FFCC3300CC3333CC3366CC3399CC33CCCC33FFCC6600CC6633CC6666CC6699CC66CCCC66FFCC9900CC9933CC9966CC9999CC99CCCC99FFCCCC00CCCC33CCCC66CCCC99CCCCCCCCCCFFCCFF00CCFF33CCFF66CCFF99CCFFCCCCFFFFFF0000FF0033FF0066FF0099FF00CCFF00FFFF3300FF3333
310
FF3366FF3399FF33CCFF33FFFF6600FF6633FF6666FF6699FF66CCFF66FFFF9900FF9933FF9966FF9999FF99CCFF99FFFFCC00FFCC33FFCC66FFCC99FFCCCCFFCCFFFFFF00FFFF33FFFF66FFFF99FFFFCCFFFFFF0000000D0D0D1A1A1A2828283535354343435050505D5D5D6B6B6B787878868686939393A1A1A1AEAEAEBB
310
BBBBC9C9C9D6D6D6E4E4E4F1F1F1FFFFFF000000000000000000000000000000000000000000000000000000000000B21171F6000000D24944415478DAEDDA3B0EC2401044C1B9FF7D27478804D0B25A3BC1EBAE0A1181FB61FEAE02000000000080FFE981ACFD83DBA2022CDF18B43FA9407880FEB934A4C0E4F5BEC3F70B
310
101F20A44078802E0104882E204078802E0104104000EF0202082080EF0202640628BF0885EF9FCD4C0F10F3DF580B2040F47ED7078CC7A65F2313B57F30376CFFF739D071FB3F4727CEAFF78B050B0000023EC2F6CC5E5F62CE1CF6FCDE5B14E8E507F5F0E3BFC729B07CBC677EF9DBE30C780E7FAD3F7EE9F71D022CBBE9
310
53000000000000806B7A00B8CF3DCCBAF8D4C60000000049454E44AE426082
  0
ENDSEC
  0
EOF
